  0
SECTION
  2
HEADER
  9
$ACADVER
  1
AC1009
  9
$DWGCODEPAGE
  3
dos932
  9
$INSBASE
 10
0.0
 20
0.0
 30
0.0
  9
$EXTMIN
 10
-138.0
 20
-95.0
 30
0.0
  9
$EXTMAX
 10
138.0
 20
95.0
 30
0.0
  9
$LIMMIN
 10
0.0
 20
0.0
  9
$LIMMAX
 10
297.0
 20
210.0
  9
$ORTHOMODE
 70
     0
  9
$REGENMODE
 70
     1
  9
$FILLMODE
 70
     1
  9
$QTEXTMODE
 70
     0
  9
$MIRRTEXT
 70
     1
  9
$DRAGMODE
 70
     2
  9
$LTSCALE
 40
1.0
  9
$OSMODE
 70
    37
  9
$ATTMODE
 70
     1
  9
$TEXTSIZE
 40
0.2
  9
$TRACEWID
 40
0.05
  9
$TEXTSTYLE
  7
STANDARD
  9
$CLAYER
  8
0
  9
$CELTYPE
  6
BYLAYER
  9
$CECOLOR
 62
   256
  9
$DIMSCALE
 40
1.0
  9
$DIMASZ
 40
0.18
  9
$DIMEXO
 40
0.0625
  9
$DIMDLI
 40
0.38
  9
$DIMRND
 40
0.0
  9
$DIMDLE
 40
0.0
  9
$DIMEXE
 40
0.18
  9
$DIMTP
 40
0.0
  9
$DIMTM
 40
0.0
  9
$DIMTXT
 40
0.18
  9
$DIMCEN
 40
0.09
  9
$DIMTSZ
 40
0.0
  9
$DIMTOL
 70
     0
  9
$DIMLIM
 70
     0
  9
$DIMTIH
 70
     1
  9
$DIMTOH
 70
     1
  9
$DIMSE1
 70
     0
  9
$DIMSE2
 70
     0
  9
$DIMTAD
 70
     0
  9
$DIMZIN
 70
     0
  9
$DIMBLK
  1

  9
$DIMASO
 70
     1
  9
$DIMSHO
 70
     1
  9
$DIMPOST
  1

  9
$DIMAPOST
  1

  9
$DIMALT
 70
     0
  9
$DIMALTD
 70
     3
  9
$DIMALTF
 40
0.0393700787401575
  9
$DIMLFAC
 40
1.0
  9
$DIMTOFL
 70
     0
  9
$DIMTVP
 40
0.0
  9
$DIMTIX
 70
     0
  9
$DIMSOXD
 70
     0
  9
$DIMSAH
 70
     0
  9
$DIMBLK1
  1

  9
$DIMBLK2
  1

  9
$DIMSTYLE
  2
STANDARD
  9
$DIMCLRD
 70
     0
  9
$DIMCLRE
 70
     0
  9
$DIMCLRT
 70
     0
  9
$DIMTFAC
 40
1.0
  9
$DIMGAP
 40
0.09
  9
$LUNITS
 70
     2
  9
$LUPREC
 70
     4
  9
$SKETCHINC
 40
0.1
  9
$FILLETRAD
 40
0.5
  9
$AUNITS
 70
     0
  9
$AUPREC
 70
     0
  9
$MENU
  1
.
  9
$ELEVATION
 40
0.0
  9
$PELEVATION
 40
0.0
  9
$THICKNESS
 40
0.0
  9
$LIMCHECK
 70
     0
  9
$CHAMFERA
 40
0.0
  9
$CHAMFERB
 40
0.0
  9
$SKPOLY
 70
     0
  9
$TDCREATE
 40
2459464.048655914
  9
$TDUPDATE
 40
2459464.048656273
  9
$TDINDWG
 40
0.0000000116
  9
$TDUSRTIMER
 40
0.0000000116
  9
$USRTIMER
 70
     1
  9
$ANGBASE
 50
0.0
  9
$ANGDIR
 70
     0
  9
$PDMODE
 70
     0
  9
$PDSIZE
 40
0.0
  9
$PLINEWID
 40
0.0
  9
$COORDS
 70
     1
  9
$SPLFRAME
 70
     0
  9
$SPLINETYPE
 70
     6
  9
$SPLINESEGS
 70
     8
  9
$ATTDIA
 70
     0
  9
$ATTREQ
 70
     1
  9
$HANDLING
 70
     1
  9
$SURFTAB1
 70
     6
  9
$SURFTAB2
 70
     6
  9
$SURFTYPE
 70
     6
  9
$SURFU
 70
     6
  9
$SURFV
 70
     6
  9
$UCSNAME
  2

  9
$UCSORG
 10
0.0
 20
0.0
 30
0.0
  9
$UCSXDIR
 10
1.0
 20
0.0
 30
0.0
  9
$UCSYDIR
 10
0.0
 20
1.0
 30
0.0
  9
$PUCSNAME
  2

  9
$PUCSORG
 10
0.0
 20
0.0
 30
0.0
  9
$PUCSXDIR
 10
1.0
 20
0.0
 30
0.0
  9
$PUCSYDIR
 10
0.0
 20
1.0
 30
0.0
  9
$USERI1
 70
     0
  9
$USERI2
 70
     0
  9
$USERI3
 70
     0
  9
$USERI4
 70
     0
  9
$USERI5
 70
     0
  9
$USERR1
 40
0.0
  9
$USERR2
 40
0.0
  9
$USERR3
 40
0.0
  9
$USERR4
 40
0.0
  9
$USERR5
 40
0.0
  9
$WORLDVIEW
 70
     1
  9
$SHADEDGE
 70
     3
  9
$SHADEDIF
 70
    70
  9
$TILEMODE
 70
     1
  9
$MAXACTVP
 70
    64
  9
$PLIMCHECK
 70
     0
  9
$PEXTMIN
 10
1.000000000000000E+20
 20
1.000000000000000E+20
 30
1.000000000000000E+20
  9
$PEXTMAX
 10
-1.000000000000000E+20
 20
-1.000000000000000E+20
 30
-1.000000000000000E+20
  9
$PLIMMIN
 10
0.0
 20
0.0
  9
$PLIMMAX
 10
12.0
 20
9.0
  9
$UNITMODE
 70
     0
  9
$VISRETAIN
 70
     1
  9
$PLINEGEN
 70
     0
  9
$PSLTSCALE
 70
     1
  0
ENDSEC
  0
SECTION
  2
TABLES
  0
TABLE
  2
VPORT
 70
     1
  0
VPORT
  2
*ACTIVE
 70
     0
 10
0.0
 20
0.0
 11
1.0
 21
1.0
 12
10.42990654205607
 22
4.5
 13
0.0
 23
0.0
 14
0.5
 24
0.5
 15
0.5
 25
0.5
 16
0.0
 26
0.0
 36
1.0
 17
0.0
 27
0.0
 37
0.0
 40
9.0
 41
1.972972972850329
 42
50.0
 43
0.0
 44
0.0
 50
0.0
 51
0.0
 71
     0
 72
   100
 73
     1
 74
     3
 75
     0
 76
     0
 77
     0
 78
     0
  0
ENDTAB
  0
TABLE
  2
LTYPE
 70
    25
  0
LTYPE
  2
CONTINUOUS
 70
     0
  3
Solid line
 72
    65
 73
     0
 40
0.0
  0
LTYPE
  2
BORDER
 70
     0
  3
__ __ . __ __ . __ __ . __ __ . __ __ . __ __ .
 72
    65
 73
     6
 40
8.75
 49
2.5
 49
-1.25
 49
2.5
 49
-1.25
 49
0.0
 49
-1.25
  0
LTYPE
  2
CENTER
 70
     0
  3
____ _ ____ _ ____ _ ____ _ ____ _ ____ _ ____ 
 72
    65
 73
     4
 40
10.0
 49
6.25
 49
-1.25
 49
1.25
 49
-1.25
  0
LTYPE
  2
DASHDOT
 70
     0
  3
__ . __ . __ . __ . __ . __ . __ . __ . __ . __
 72
    65
 73
     4
 40
5.0
 49
2.5
 49
-1.25
 49
0.0
 49
-1.25
  0
LTYPE
  2
DASHED
 70
     0
  3
__ __ __ __ __ __ __ __ __ __ __ __ __ __ __ __
 72
    65
 73
     2
 40
3.75
 49
2.5
 49
-1.25
  0
LTYPE
  2
DIVIDE
 70
     0
  3
____ . . ____ . . ____ . . ____ . . ____ . . __
 72
    65
 73
     6
 40
6.25
 49
2.5
 49
-1.25
 49
0.0
 49
-1.25
 49
0.0
 49
-1.25
  0
LTYPE
  2
DOT
 70
     0
  3
. . . . . . . . . . . . . . . . . . . . . . . .
 72
    65
 73
     2
 40
1.25
 49
0.0
 49
-1.25
  0
LTYPE
  2
HIDDEN
 70
     0
  3
__ __ __ __ __ __ __ __ __ __ __ __ __ __ __ __
 72
    65
 73
     2
 40
1.875
 49
1.25
 49
-0.625
  0
LTYPE
  2
PHANTOM
 70
     0
  3
______  __  __  ______  __  __  ______  __  __ 
 72
    65
 73
     6
 40
12.5
 49
6.25
 49
-1.25
 49
1.25
 49
-1.25
 49
1.25
 49
-1.25
  0
LTYPE
  2
BORDER2
 70
     0
  3
__.__.__.__.__.__.__.__.__.__.__.__.__.__.__.__
 72
    65
 73
     2
 40
2.5
 49
2.5
 49
0.0
  0
LTYPE
  2
BORDERX2
 70
     0
  3
____ ____ . ____ ____ . ____ ____ . ____ ____ .
 72
    65
 73
     6
 40
13.75
 49
5.0
 49
-1.25
 49
5.0
 49
-1.25
 49
0.0
 49
-1.25
  0
LTYPE
  2
CENTER2
 70
     0
  3
___ _ ___ _ ___ _ ___ _ ___ _ ___ _ ___ _ ___ _
 72
    65
 73
     4
 40
8.4
 49
4.65
 49
-1.25
 49
1.25
 49
-1.25
  0
LTYPE
  2
CENTERX2
 70
     0
  3
_________ _ _________ _ _________ _ _________ _
 72
    65
 73
     4
 40
16.8
 49
13.05
 49
-1.25
 49
1.25
 49
-1.25
  0
LTYPE
  2
DASHDOT2
 70
     0
  3
_ . _ . _ . _ . _ . _ . _ . _ . _ . _ . _ . _ .
 72
    65
 73
     4
 40
3.75
 49
1.25
 49
-1.25
 49
0.0
 49
-1.25
  0
LTYPE
  2
DASHDOTX2
 70
     0
  3
________ . ________ . ________ . ________ . ___
 72
    65
 73
     4
 40
12.5
 49
10.0
 49
-1.25
 49
0.0
 49
-1.25
  0
LTYPE
  2
DASHED2
 70
     0
  3
_ _ _ _ _ _ _ _ _ _ _ _ _ _ _ _ _ _ _ _ _ _ _ _
 72
    65
 73
     2
 40
2.5
 49
1.25
 49
-1.25
  0
LTYPE
  2
DASHEDX2
 70
     0
  3
____ ____ ____ ____ ____ ____ ____ ____ ____ __
 72
    65
 73
     4
 40
2.5
 49
10.0
 49
-1.25
 49
0.0
 49
-1.25
  0
LTYPE
  2
DIVIDE2
 70
     0
  3
_ _ . . _ _ . . _ _ . . _ _ . . _ _ . . _ _ . .
 72
    65
 73
     8
 40
7.5
 49
1.25
 49
-1.25
 49
1.25
 49
-1.25
 49
0.0
 49
-1.25
 49
0.0
 49
-1.25
  0
LTYPE
  2
DIVIDEX2
 70
     0
  3
________________ . . ________________ . . _____
 72
    65
 73
     7
 40
13.75
 49
0.625
 49
10.0
 49
-1.25
 49
0.0
 49
-1.25
 49
0.0
 49
-1.25
  0
LTYPE
  2
DOT2
 70
     0
  3
...............................................
 72
    65
 73
     2
 40
0.625
 49
0.0
 49
-0.625
  0
LTYPE
  2
DOTX2
 70
     0
  3
.  .  .  .  .  .  .  .  .  .  .  .  .  .  .  . 
 72
    65
 73
     2
 40
2.5
 49
0.0
 49
-2.5
  0
LTYPE
  2
HIDDEN2
 70
     0
  3
_ _ _ _ _ _ _ _ _ _ _ _ _ _ _ _ _ _ _ _ _ _ _ _
 72
    65
 73
     2
 40
1.25
 49
0.625
 49
-0.625
  0
LTYPE
  2
HIDDENX2
 70
     0
  3
____ ____ ____ ____ ____ ____ ____ ____ ____ __
 72
    65
 73
     2
 40
3.125
 49
2.5
 49
-0.625
  0
LTYPE
  2
PHANTOM2
 70
     0
  3
___  __  __  ___  __  __  ___  __  __ ___  __  
 72
    65
 73
     6
 40
9.375
 49
3.125
 49
-1.25
 49
1.25
 49
-1.25
 49
1.25
 49
-1.25
  0
LTYPE
  2
PHANTOMX2
 70
     0
  3
____________  __  __  ____________  __  __  ___
 72
    65
 73
     6
 40
18.75
 49
12.5
 49
-1.25
 49
1.25
 49
-1.25
 49
1.25
 49
-1.25
  0
ENDTAB
  0
TABLE
  2
LAYER
 70
     4
  0
LAYER
  2
0
 70
     0
 62
     7
  6
CONTINUOUS
  0
LAYER
  2
1
 70
     0
 62
     7
  6
CONTINUOUS
  0
LAYER
  2
2
 70
     0
 62
     7
  6
CONTINUOUS
  0
LAYER
  2
100
 70
     0
 62
     7
  6
CONTINUOUS
  0
ENDTAB
  0
TABLE
  2
STYLE
 70
     2
  0
STYLE
  2
STANDARD
 70
     0
 40
0.0
 41
1.0
 50
0.0
 71
     0
 42
0.2
  3
txt
  4

  0
STYLE
  2
EXCESS_STANDARD
 70
     0
 40
0.2
 41
1.0
 50
0.0
 71
     0
 42
0.2
  3
txt
  4
BIGFONT
  0
ENDTAB
  0
TABLE
  2
VIEW
 70
     0
  0
ENDTAB
  0
TABLE
  2
UCS
 70
     0
  0
ENDTAB
  0
TABLE
  2
APPID
 70
     1
  0
APPID
  2
ACAD
 70
     0
  0
ENDTAB
  0
TABLE
  2
DIMSTYLE
 70
     2
  0
DIMSTYLE
  2
STANDARD
 70
     0
  3

  4

  5

  6

  7

 40
1.0
 41
0.18
 42
0.0625
 43
0.38
 44
0.18
 45
0.0
 46
0.0
 47
0.0
 48
0.0
140
0.18
141
0.09
142
0.0
143
25.4
144
1.0
145
0.0
146
1.0
147
0.09
 71
     0
 72
     0
 73
     1
 74
     1
 75
     0
 76
     0
 77
     0
 78
     0
170
     0
171
     2
172
     0
173
     0
174
     0
175
     0
176
     0
177
     0
178
     0
  0
DIMSTYLE
  2
ISO-25
 70
     0
  3

  4

  5

  6

  7

 40
1.0
 41
1.75
 42
0.3
 43
4.5
 44
0.18
 45
0.0
 46
0.0
 47
0.0
 48
0.0
140
2.5
141
0.09
142
0.0
143
25.4
144
1.0
145
0.0
146
0.5
147
0.2
 71
     0
 72
     0
 73
     1
 74
     1
 75
     0
 76
     0
 77
     1
 78
     0
170
     0
171
     2
172
     0
173
     0
174
     0
175
     0
176
     0
177
     0
178
     0
  0
ENDTAB
  0
ENDSEC
  0
SECTION
  2
BLOCKS
  0
BLOCK
  8
0
  2
$MODEL_SPACE
 70
     0
 10
0.0
 20
0.0
 30
0.0
  3
$MODEL_SPACE
  1

  0
ENDBLK
  8
0
  0
BLOCK
 67
     1
  8
0
  2
$PAPER_SPACE
 70
     0
 10
0.0
 20
0.0
 30
0.0
  3
$PAPER_SPACE
  1

  0
ENDBLK
 67
     1
  8
0
  0
BLOCK
  8
0
  2
0-NONE
 70
     0
 10
0.0
 20
0.0
 30
0.0
  3
0-NONE
  1

  0
POLYLINE
  8
1
  6
CONTINUOUS
 62
     2
 66
     1
 10
0.0
 20
0.0
 30
0.0
  0
VERTEX
  8
1
  6
CONTINUOUS
 62
     2
 10
-138.0
 20
-95.0
 30
0.0
  0
VERTEX
  8
1
  6
CONTINUOUS
 62
     2
 10
-138.0
 20
95.0
 30
0.0
  0
VERTEX
  8
1
  6
CONTINUOUS
 62
     2
 10
0.0
 20
95.0
 30
0.0
  0
VERTEX
  8
1
  6
CONTINUOUS
 62
     2
 10
0.0
 20
94.0
 30
0.0
  0
VERTEX
  8
1
  6
CONTINUOUS
 62
     2
 10
0.0
 20
95.0
 30
0.0
  0
VERTEX
  8
1
  6
CONTINUOUS
 62
     2
 10
138.0
 20
95.0
 30
0.0
  0
VERTEX
  8
1
  6
CONTINUOUS
 62
     2
 10
138.0
 20
-95.0
 30
0.0
  0
VERTEX
  8
1
  6
CONTINUOUS
 62
     2
 10
-138.0
 20
-95.0
 30
0.0
  0
SEQEND
  8
1
  6
CONTINUOUS
 62
     2
  0
POLYLINE
  8
1
  6
DASHDOT
 62
     1
 66
     1
 10
0.0
 20
0.0
 30
0.0
  0
VERTEX
  8
1
  6
DASHDOT
 62
     1
 10
-122.386929
 20
87.32645
 30
0.0
  0
VERTEX
  8
1
  6
DASHDOT
 62
     1
 10
-89.096903
 20
87.32645
 30
0.0
  0
VERTEX
  8
1
  6
DASHDOT
 62
     1
 10
-89.096903
 20
79.809348
 30
0.0
  0
VERTEX
  8
1
  6
DASHDOT
 62
     1
 10
-122.386929
 20
79.809348
 30
0.0
  0
VERTEX
  8
1
  6
DASHDOT
 62
     1
 10
-122.386929
 20
87.32645
 30
0.0
  0
SEQEND
  8
1
  6
DASHDOT
 62
     1
  0
POLYLINE
  8
1
  6
CONTINUOUS
 62
     7
 66
     1
 10
0.0
 20
0.0
 30
0.0
  0
VERTEX
  8
1
  6
CONTINUOUS
 62
     7
 10
11.9668230001713
 20
54.542867
 30
0.0
  0
VERTEX
  8
1
  6
CONTINUOUS
 62
     7
 10
21.96682300046086
 20
54.542867
 30
0.0
  0
VERTEX
  8
1
  6
CONTINUOUS
 62
     7
 10
21.96682300028957
 20
33.542867
 30
0.0
  0
VERTEX
  8
1
  6
CONTINUOUS
 62
     7
 10
11.96682300000001
 20
33.542867
 30
0.0
  0
VERTEX
  8
1
  6
CONTINUOUS
 62
     7
 10
11.9668230001713
 20
54.542867
 30
0.0
  0
SEQEND
  8
1
  6
CONTINUOUS
 62
     7
  0
LINE
  8
1
  6
DOT
 62
     7
 10
11.96682300000001
 20
46.542867
 30
0.0
 11
21.96682300028957
 21
46.542867
 31
0.0
  0
POLYLINE
  8
1
  6
CONTINUOUS
 62
     6
 66
     1
 10
0.0
 20
0.0
 30
0.0
  0
VERTEX
  8
1
  6
CONTINUOUS
 62
     6
 10
-65.33425499999998
 20
84.83179788402973
 30
0.0
  0
VERTEX
  8
1
  6
CONTINUOUS
 62
     6
 10
-68.83425499999998
 20
82.81107194186603
 30
0.0
  0
VERTEX
  8
1
  6
CONTINUOUS
 62
     6
 10
-68.83425499999998
 20
78.76962005753865
 30
0.0
  0
VERTEX
  8
1
  6
CONTINUOUS
 62
     6
 10
-65.33425499999998
 20
76.74889411537495
 30
0.0
  0
VERTEX
  8
1
  6
CONTINUOUS
 62
     6
 10
-61.83425499999998
 20
78.76962005753865
 30
0.0
  0
VERTEX
  8
1
  6
CONTINUOUS
 62
     6
 10
-61.83425499999998
 20
82.81107194186602
 30
0.0
  0
VERTEX
  8
1
  6
CONTINUOUS
 62
     6
 10
-65.33425499999998
 20
84.83179788402973
 30
0.0
  0
SEQEND
  8
1
  6
CONTINUOUS
 62
     6
  0
CIRCLE
  8
1
  6
CONTINUOUS
 62
     3
 10
-65.33425500057638
 20
80.79034599970234
 30
0.0
 40
2.0
  0
CIRCLE
  8
1
  6
CONTINUOUS
 62
     3
 10
-65.33425500057638
 20
80.79034599970234
 30
0.0
 40
1.65
  0
LINE
  8
1
  6
BORDER
 62
     4
 10
-65.33425500057638
 20
80.79034599970234
 30
0.0
 11
-61.33425500057638
 21
80.79034599970234
 31
0.0
  0
LINE
  8
1
  6
BORDER
 62
     4
 10
-65.33425500057638
 20
80.79034599970234
 30
0.0
 11
-69.33425500057638
 21
80.79034599970234
 31
0.0
  0
LINE
  8
1
  6
BORDER
 62
     4
 10
-65.33425500057638
 20
80.79034599970234
 30
0.0
 11
-65.33425500057638
 21
84.79034599970234
 31
0.0
  0
LINE
  8
1
  6
BORDER
 62
     4
 10
-65.33425500057638
 20
80.79034599970234
 30
0.0
 11
-65.33425500057638
 21
76.79034599970234
 31
0.0
  0
POLYLINE
  8
1
  6
DASHDOT
 62
     1
 66
     1
 10
0.0
 20
0.0
 30
0.0
  0
VERTEX
  8
1
  6
DASHDOT
 62
     1
 10
-54.051871
 20
89.90177899999999
 30
0.0
  0
VERTEX
  8
1
  6
DASHDOT
 62
     1
 10
-30.309721
 20
89.90177899999999
 30
0.0
  0
VERTEX
  8
1
  6
DASHDOT
 62
     1
 10
-30.309721
 20
83.78906099999999
 30
0.0
  0
VERTEX
  8
1
  6
DASHDOT
 62
     1
 10
-54.051871
 20
83.78906099999999
 30
0.0
  0
VERTEX
  8
1
  6
DASHDOT
 62
     1
 10
-54.051871
 20
89.90177899999999
 30
0.0
  0
SEQEND
  8
1
  6
DASHDOT
 62
     1
  0
LINE
  8
1
  6
DOT
 62
     7
 10
108.331511
 20
80.21592599970234
 30
0.0
 11
108.331511
 21
70.21592599970234
 31
0.0
  0
LINE
  8
1
  6
DOT
 62
     7
 10
56.33151100000001
 20
80.21592599970234
 30
0.0
 11
56.33151100000001
 21
70.21592599970234
 31
0.0
  0
POLYLINE
  8
1
  6
CONTINUOUS
 62
     7
 66
     1
 10
0.0
 20
0.0
 30
0.0
  0
VERTEX
  8
1
  6
CONTINUOUS
 62
     7
 10
110.331511
 20
49.542867
 30
0.0
  0
VERTEX
  8
1
  6
CONTINUOUS
 62
     7
 10
110.331511
 20
33.542867
 30
0.0
  0
VERTEX
  8
1
  6
CONTINUOUS
 62
     7
 10
108.331511
 20
33.542867
 30
0.0
  0
VERTEX
  8
1
  6
CONTINUOUS
 62
     7
 10
108.331511
 20
45.042867
 30
0.0
  0
VERTEX
  8
1
  6
CONTINUOUS
 62
     7
 10
106.831511
 20
46.542867
 30
0.0
  0
VERTEX
  8
1
  6
CONTINUOUS
 62
     7
 10
72.331511
 20
46.542867
 30
0.0
  0
VERTEX
  8
1
  6
CONTINUOUS
 62
     7
 10
72.331511
 20
50.542867
 30
0.0
 42
-0.414213562373095
  0
VERTEX
  8
1
  6
CONTINUOUS
 62
     7
 10
72.831511
 20
51.042867
 30
0.0
  0
VERTEX
  8
1
  6
CONTINUOUS
 62
     7
 10
89.831511
 20
51.042867
 30
0.0
  0
VERTEX
  8
1
  6
CONTINUOUS
 62
     7
 10
89.831511
 20
54.542867
 30
0.0
  0
VERTEX
  8
1
  6
CONTINUOUS
 62
     7
 10
105.331511
 20
54.542867
 30
0.0
 42
-0.414213562373095
  0
VERTEX
  8
1
  6
CONTINUOUS
 62
     7
 10
110.331511
 20
49.542867
 30
0.0
  0
SEQEND
  8
1
  6
CONTINUOUS
 62
     7
  0
POLYLINE
  8
1
  6
CONTINUOUS
 62
     7
 66
     1
 10
0.0
 20
0.0
 30
0.0
  0
VERTEX
  8
1
  6
CONTINUOUS
 62
     7
 10
88.331511
 20
54.542867
 30
0.0
  0
VERTEX
  8
1
  6
CONTINUOUS
 62
     7
 10
88.331511
 20
51.542867
 30
0.0
 42
-0.414213562373095
  0
VERTEX
  8
1
  6
CONTINUOUS
 62
     7
 10
87.831511
 20
51.042867
 30
0.0
  0
VERTEX
  8
1
  6
CONTINUOUS
 62
     7
 10
70.831511
 20
51.042867
 30
0.0
  0
VERTEX
  8
1
  6
CONTINUOUS
 62
     7
 10
70.831511
 20
46.542867
 30
0.0
  0
VERTEX
  8
1
  6
CONTINUOUS
 62
     7
 10
57.83151099813736
 20
46.542867
 30
0.0
  0
VERTEX
  8
1
  6
CONTINUOUS
 62
     7
 10
56.33151099835229
 20
45.042867
 30
0.0
  0
VERTEX
  8
1
  6
CONTINUOUS
 62
     7
 10
56.33151100000001
 20
33.542867
 30
0.0
  0
VERTEX
  8
1
  6
CONTINUOUS
 62
     7
 10
54.33151100000001
 20
33.542867
 30
0.0
  0
VERTEX
  8
1
  6
CONTINUOUS
 62
     7
 10
54.33151100000001
 20
49.542867
 30
0.0
 42
-0.414213562373095
  0
VERTEX
  8
1
  6
CONTINUOUS
 62
     7
 10
59.33151100000001
 20
54.542867
 30
0.0
  0
VERTEX
  8
1
  6
CONTINUOUS
 62
     7
 10
88.331511
 20
54.542867
 30
0.0
  0
SEQEND
  8
1
  6
CONTINUOUS
 62
     7
  0
POLYLINE
  8
1
  6
CONTINUOUS
 62
     7
 66
     1
 10
0.0
 20
0.0
 30
0.0
  0
VERTEX
  8
1
  6
CONTINUOUS
 62
     7
 10
54.33151100000001
 20
80.21592599970234
 30
0.0
  0
VERTEX
  8
1
  6
CONTINUOUS
 62
     7
 10
88.331511
 20
80.21592599970234
 30
0.0
  0
VERTEX
  8
1
  6
CONTINUOUS
 62
     7
 10
88.331511
 20
70.21592599970234
 30
0.0
  0
VERTEX
  8
1
  6
CONTINUOUS
 62
     7
 10
54.33151100000001
 20
70.21592599970234
 30
0.0
  0
VERTEX
  8
1
  6
CONTINUOUS
 62
     7
 10
54.33151100000001
 20
80.21592599970234
 30
0.0
  0
SEQEND
  8
1
  6
CONTINUOUS
 62
     7
  0
LINE
  8
1
  6
DOT
 62
     7
 10
70.831511
 20
80.21592599970234
 30
0.0
 11
70.831511
 21
70.21592599970234
 31
0.0
  0
POLYLINE
  8
1
  6
CONTINUOUS
 62
     7
 66
     1
 10
0.0
 20
0.0
 30
0.0
  0
VERTEX
  8
1
  6
CONTINUOUS
 62
     7
 10
110.331511
 20
80.21592599970234
 30
0.0
  0
VERTEX
  8
1
  6
CONTINUOUS
 62
     7
 10
72.331511
 20
80.21592599970234
 30
0.0
  0
VERTEX
  8
1
  6
CONTINUOUS
 62
     7
 10
72.331511
 20
70.21592599970234
 30
0.0
  0
VERTEX
  8
1
  6
CONTINUOUS
 62
     7
 10
110.331511
 20
70.21592599970234
 30
0.0
  0
VERTEX
  8
1
  6
CONTINUOUS
 62
     7
 10
110.331511
 20
80.21592599970234
 30
0.0
  0
SEQEND
  8
1
  6
CONTINUOUS
 62
     7
  0
LINE
  8
1
  6
CONTINUOUS
 62
     7
 10
89.831511
 20
80.21592599970234
 30
0.0
 11
89.831511
 21
70.21592599970234
 31
0.0
  0
POLYLINE
  8
1
  6
CONTINUOUS
 62
     7
 66
     1
 10
0.0
 20
0.0
 30
0.0
  0
VERTEX
  8
1
  6
CONTINUOUS
 62
     7
 10
83.83151099785067
 20
77.71592599970234
 30
0.0
 42
-0.9999999999999968
  0
VERTEX
  8
1
  6
CONTINUOUS
 62
     7
 10
83.83151100214936
 20
72.71592599970234
 30
0.0
  0
VERTEX
  8
1
  6
CONTINUOUS
 62
     7
 10
80.83151100214934
 20
72.71592599712312
 30
0.0
 42
-0.9999999999999968
  0
VERTEX
  8
1
  6
CONTINUOUS
 62
     7
 10
80.83151099785066
 20
77.71592599712312
 30
0.0
  0
VERTEX
  8
1
  6
CONTINUOUS
 62
     7
 10
83.83151099785067
 20
77.71592599970234
 30
0.0
  0
SEQEND
  8
1
  6
CONTINUOUS
 62
     7
  0
POLYLINE
  8
1
  6
DOT
 62
     7
 66
     1
 10
0.0
 20
0.0
 30
0.0
  0
VERTEX
  8
1
  6
DOT
 62
     7
 10
86.031510997221
 20
49.542867
 30
0.0
  0
VERTEX
  8
1
  6
DOT
 62
     7
 10
78.631511
 20
49.542867
 30
0.0
  0
VERTEX
  8
1
  6
DOT
 62
     7
 10
78.631511
 20
46.54286700114608
 30
0.0
  0
VERTEX
  8
1
  6
DOT
 62
     7
 10
86.031510997221
 20
46.54286700114608
 30
0.0
  0
VERTEX
  8
1
  6
DOT
 62
     7
 10
86.031510997221
 20
49.542867
 30
0.0
  0
SEQEND
  8
1
  6
DOT
 62
     7
  0
POLYLINE
  8
1
  6
DOT
 62
     7
 66
     1
 10
0.0
 20
0.0
 30
0.0
  0
VERTEX
  8
1
  6
DOT
 62
     7
 10
84.46770699600162
 20
78.91592599970234
 30
0.0
  0
VERTEX
  8
1
  6
DOT
 62
     7
 10
86.60390299200324
 20
75.21592599970234
 30
0.0
  0
VERTEX
  8
1
  6
DOT
 62
     7
 10
84.46770699600162
 20
71.51592599970232
 30
0.0
  0
VERTEX
  8
1
  6
DOT
 62
     7
 10
80.19531500399839
 20
71.51592599970232
 30
0.0
  0
VERTEX
  8
1
  6
DOT
 62
     7
 10
78.05911900799677
 20
75.21592599970234
 30
0.0
  0
VERTEX
  8
1
  6
DOT
 62
     7
 10
80.19531500399839
 20
78.91592599970232
 30
0.0
  0
VERTEX
  8
1
  6
DOT
 62
     7
 10
84.46770699600162
 20
78.91592599970234
 30
0.0
  0
SEQEND
  8
1
  6
DOT
 62
     7
  0
CIRCLE
  8
1
  6
CONTINUOUS
 62
     7
 10
82.331511
 20
75.21592599970234
 30
0.0
 40
2.75
  0
LINE
  8
1
  6
DOT
 62
     7
 10
-7.745128999999991
 20
-0.6147490002976639
 30
0.0
 11
-7.745128999999991
 21
-10.61474900029766
 31
0.0
  0
POLYLINE
  8
1
  6
CONTINUOUS
 62
     7
 66
     1
 10
0.0
 20
0.0
 30
0.0
  0
VERTEX
  8
1
  6
CONTINUOUS
 62
     7
 10
-10.74512899999999
 20
-26.287808
 30
0.0
 42
-0.414213562373095
  0
VERTEX
  8
1
  6
CONTINUOUS
 62
     7
 10
-5.745128999999991
 20
-31.287808
 30
0.0
  0
VERTEX
  8
1
  6
CONTINUOUS
 62
     7
 10
-5.745128999999991
 20
-47.287808
 30
0.0
  0
VERTEX
  8
1
  6
CONTINUOUS
 62
     7
 10
-7.745128999999991
 20
-47.287808
 30
0.0
  0
VERTEX
  8
1
  6
CONTINUOUS
 62
     7
 10
-7.745128999999991
 20
-35.787808
 30
0.0
  0
VERTEX
  8
1
  6
CONTINUOUS
 62
     7
 10
-9.245128999999991
 20
-34.287808
 30
0.0
  0
VERTEX
  8
1
  6
CONTINUOUS
 62
     7
 10
-43.74512899999999
 20
-34.287808
 30
0.0
  0
VERTEX
  8
1
  6
CONTINUOUS
 62
     7
 10
-43.74512899999999
 20
-30.287808
 30
0.0
 42
-0.414213562373095
  0
VERTEX
  8
1
  6
CONTINUOUS
 62
     7
 10
-43.24512899999999
 20
-29.787808
 30
0.0
  0
VERTEX
  8
1
  6
CONTINUOUS
 62
     7
 10
-26.24512899999999
 20
-29.787808
 30
0.0
  0
VERTEX
  8
1
  6
CONTINUOUS
 62
     7
 10
-26.24512899999999
 20
-26.287808
 30
0.0
  0
VERTEX
  8
1
  6
CONTINUOUS
 62
     7
 10
-10.74512899999999
 20
-26.287808
 30
0.0
  0
SEQEND
  8
1
  6
CONTINUOUS
 62
     7
  0
POLYLINE
  8
1
  6
CONTINUOUS
 62
     7
 66
     1
 10
0.0
 20
0.0
 30
0.0
  0
VERTEX
  8
1
  6
CONTINUOUS
 62
     7
 10
-5.745128999999991
 20
-0.6147490002976639
 30
0.0
  0
VERTEX
  8
1
  6
CONTINUOUS
 62
     7
 10
-43.74512899999999
 20
-0.6147490002976639
 30
0.0
  0
VERTEX
  8
1
  6
CONTINUOUS
 62
     7
 10
-43.74512899999999
 20
-10.61474900029766
 30
0.0
  0
VERTEX
  8
1
  6
CONTINUOUS
 62
     7
 10
-5.745128999999991
 20
-10.61474900029766
 30
0.0
  0
VERTEX
  8
1
  6
CONTINUOUS
 62
     7
 10
-5.745128999999991
 20
-0.6147490002976639
 30
0.0
  0
SEQEND
  8
1
  6
CONTINUOUS
 62
     7
  0
LINE
  8
1
  6
DOT
 62
     7
 10
-91.05423500003823
 20
-0.6147490002976639
 30
0.0
 11
-91.05423500003823
 21
-10.61474900029766
 31
0.0
  0
POLYLINE
  8
1
  6
CONTINUOUS
 62
     7
 66
     1
 10
0.0
 20
0.0
 30
0.0
  0
VERTEX
  8
1
  6
CONTINUOUS
 62
     7
 10
-59.05423500003823
 20
-26.287808
 30
0.0
  0
VERTEX
  8
1
  6
CONTINUOUS
 62
     7
 10
-59.05423500003823
 20
-29.287808
 30
0.0
 42
-0.414213562373095
  0
VERTEX
  8
1
  6
CONTINUOUS
 62
     7
 10
-59.55423500003823
 20
-29.787808
 30
0.0
  0
VERTEX
  8
1
  6
CONTINUOUS
 62
     7
 10
-76.55423500003823
 20
-29.787808
 30
0.0
  0
VERTEX
  8
1
  6
CONTINUOUS
 62
     7
 10
-76.55423500003823
 20
-34.287808
 30
0.0
  0
VERTEX
  8
1
  6
CONTINUOUS
 62
     7
 10
-89.55423500190088
 20
-34.287808
 30
0.0
  0
VERTEX
  8
1
  6
CONTINUOUS
 62
     7
 10
-91.05423500168595
 20
-35.787808
 30
0.0
  0
VERTEX
  8
1
  6
CONTINUOUS
 62
     7
 10
-91.05423500003823
 20
-47.287808
 30
0.0
  0
VERTEX
  8
1
  6
CONTINUOUS
 62
     7
 10
-93.05423500003823
 20
-47.287808
 30
0.0
  0
VERTEX
  8
1
  6
CONTINUOUS
 62
     7
 10
-93.05423500003823
 20
-31.287808
 30
0.0
 42
-0.414213562373095
  0
VERTEX
  8
1
  6
CONTINUOUS
 62
     7
 10
-88.05423500003823
 20
-26.287808
 30
0.0
  0
VERTEX
  8
1
  6
CONTINUOUS
 62
     7
 10
-59.05423500003823
 20
-26.287808
 30
0.0
  0
SEQEND
  8
1
  6
CONTINUOUS
 62
     7
  0
POLYLINE
  8
1
  6
CONTINUOUS
 62
     7
 66
     1
 10
0.0
 20
0.0
 30
0.0
  0
VERTEX
  8
1
  6
CONTINUOUS
 62
     7
 10
-93.05423500003823
 20
-0.6147490002976639
 30
0.0
  0
VERTEX
  8
1
  6
CONTINUOUS
 62
     7
 10
-59.05423500003823
 20
-0.6147490002976639
 30
0.0
  0
VERTEX
  8
1
  6
CONTINUOUS
 62
     7
 10
-59.05423500003823
 20
-10.61474900029766
 30
0.0
  0
VERTEX
  8
1
  6
CONTINUOUS
 62
     7
 10
-93.05423500003823
 20
-10.61474900029766
 30
0.0
  0
VERTEX
  8
1
  6
CONTINUOUS
 62
     7
 10
-93.05423500003823
 20
-0.6147490002976639
 30
0.0
  0
SEQEND
  8
1
  6
CONTINUOUS
 62
     7
  0
LINE
  8
1
  6
DOT
 62
     7
 10
-76.55423500003823
 20
-0.6147490002976639
 30
0.0
 11
-76.55423500003823
 21
-10.61474900029766
 31
0.0
  0
POLYLINE
  8
1
  6
CONTINUOUS
 62
     7
 66
     1
 10
0.0
 20
0.0
 30
0.0
  0
VERTEX
  8
1
  6
CONTINUOUS
 62
     7
 10
-63.55423500218756
 20
-3.114749000297664
 30
0.0
 42
-0.9999999999999968
  0
VERTEX
  8
1
  6
CONTINUOUS
 62
     7
 10
-63.55423499788888
 20
-8.114749000297664
 30
0.0
  0
VERTEX
  8
1
  6
CONTINUOUS
 62
     7
 10
-66.5542349978889
 20
-8.114749002876877
 30
0.0
 42
-0.9999999999999997
  0
VERTEX
  8
1
  6
CONTINUOUS
 62
     7
 10
-66.55423500218757
 20
-3.114749002876877
 30
0.0
  0
VERTEX
  8
1
  6
CONTINUOUS
 62
     7
 10
-63.55423500218756
 20
-3.114749000297664
 30
0.0
  0
SEQEND
  8
1
  6
CONTINUOUS
 62
     7
  0
POLYLINE
  8
1
  6
CONTINUOUS
 62
     7
 66
     1
 10
0.0
 20
0.0
 30
0.0
  0
VERTEX
  8
1
  6
CONTINUOUS
 62
     7
 10
17.22824799970044
 20
-26.287808
 30
0.0
  0
VERTEX
  8
1
  6
CONTINUOUS
 62
     7
 10
7.228247999410883
 20
-26.287808
 30
0.0
  0
VERTEX
  8
1
  6
CONTINUOUS
 62
     7
 10
7.22824799958218
 20
-47.287808
 30
0.0
  0
VERTEX
  8
1
  6
CONTINUOUS
 62
     7
 10
17.22824799987174
 20
-47.287808
 30
0.0
  0
VERTEX
  8
1
  6
CONTINUOUS
 62
     7
 10
17.22824799970044
 20
-26.287808
 30
0.0
  0
SEQEND
  8
1
  6
CONTINUOUS
 62
     7
  0
LINE
  8
1
  6
DOT
 62
     7
 10
17.22824799987174
 20
-34.287808
 30
0.0
 11
7.22824799958218
 21
-34.287808
 31
0.0
  0
POLYLINE
  8
1
  6
DOT
 62
     7
 66
     1
 10
0.0
 20
0.0
 30
0.0
  0
VERTEX
  8
1
  6
DOT
 62
     7
 10
-31.60893300399837
 20
-1.914749000297661
 30
0.0
  0
VERTEX
  8
1
  6
DOT
 62
     7
 10
-29.47273700799676
 20
-5.614749000297664
 30
0.0
  0
VERTEX
  8
1
  6
DOT
 62
     7
 10
-31.60893300399837
 20
-9.314749000297674
 30
0.0
  0
VERTEX
  8
1
  6
DOT
 62
     7
 10
-35.88132499600161
 20
-9.314749000297674
 30
0.0
  0
VERTEX
  8
1
  6
DOT
 62
     7
 10
-38.01752099200323
 20
-5.614749000297671
 30
0.0
  0
VERTEX
  8
1
  6
DOT
 62
     7
 10
-35.88132499600161
 20
-1.914749000297675
 30
0.0
  0
VERTEX
  8
1
  6
DOT
 62
     7
 10
-31.60893300399837
 20
-1.914749000297661
 30
0.0
  0
SEQEND
  8
1
  6
DOT
 62
     7
  0
POLYLINE
  8
1
  6
DOT
 62
     7
 66
     1
 10
0.0
 20
0.0
 30
0.0
  0
VERTEX
  8
1
  6
DOT
 62
     7
 10
-30.04512900277899
 20
-31.287808
 30
0.0
  0
VERTEX
  8
1
  6
DOT
 62
     7
 10
-37.44512899999999
 20
-31.287808
 30
0.0
  0
VERTEX
  8
1
  6
DOT
 62
     7
 10
-37.44512899999999
 20
-34.28780799885392
 30
0.0
  0
VERTEX
  8
1
  6
DOT
 62
     7
 10
-30.04512900277899
 20
-34.28780799885392
 30
0.0
  0
VERTEX
  8
1
  6
DOT
 62
     7
 10
-30.04512900277899
 20
-31.287808
 30
0.0
  0
SEQEND
  8
1
  6
DOT
 62
     7
  0
CIRCLE
  8
1
  6
CONTINUOUS
 62
     7
 10
-33.74512899999999
 20
-5.614749000297664
 30
0.0
 40
2.75
  0
LINE
  8
1
  6
DOT
 62
     7
 10
-30.99512899999999
 20
-31.287808
 30
0.0
 11
-30.99512899999999
 21
-29.787808
 31
0.0
  0
LINE
  8
1
  6
DOT
 62
     7
 10
-36.49512899999999
 20
-31.287808
 30
0.0
 11
-36.49512899999999
 21
-29.787808
 31
0.0
  0
LINE
  8
1
  6
DOT
 62
     7
 10
-61.05423500003823
 20
-26.287808
 30
0.0
 11
-61.05423500003823
 21
-29.78780799917877
 31
0.0
  0
LINE
  8
1
  6
DOT
 62
     7
 10
-69.05423500003823
 20
-29.787808
 30
0.0
 11
-69.05423500003823
 21
-26.28780799917877
 31
0.0
  0
POLYLINE
  8
1
  6
DASHDOT
 62
     4
 66
     1
 10
0.0
 20
0.0
 30
0.0
  0
VERTEX
  8
1
  6
DASHDOT
 62
     4
 10
-87.340233
 20
26.265067
 30
0.0
  0
VERTEX
  8
1
  6
DASHDOT
 62
     4
 10
-66.252147
 20
26.265067
 30
0.0
  0
VERTEX
  8
1
  6
DASHDOT
 62
     4
 10
-66.252147
 20
19.259058
 30
0.0
  0
VERTEX
  8
1
  6
DASHDOT
 62
     4
 10
-87.340233
 20
19.259058
 30
0.0
  0
VERTEX
  8
1
  6
DASHDOT
 62
     4
 10
-87.340233
 20
26.265067
 30
0.0
  0
SEQEND
  8
1
  6
DASHDOT
 62
     4
  0
POLYLINE
  8
1
  6
DASHDOT
 62
     4
 66
     1
 10
0.0
 20
0.0
 30
0.0
  0
VERTEX
  8
1
  6
DASHDOT
 62
     4
 10
-33.464027
 20
25.354286
 30
0.0
  0
VERTEX
  8
1
  6
DASHDOT
 62
     4
 10
-11.815461
 20
25.354286
 30
0.0
  0
VERTEX
  8
1
  6
DASHDOT
 62
     4
 10
-11.815461
 20
18.488397
 30
0.0
  0
VERTEX
  8
1
  6
DASHDOT
 62
     4
 10
-33.464027
 20
18.488397
 30
0.0
  0
VERTEX
  8
1
  6
DASHDOT
 62
     4
 10
-33.464027
 20
25.354286
 30
0.0
  0
SEQEND
  8
1
  6
DASHDOT
 62
     4
  0
LINE
  8
1
  6
CONTINUOUS
 62
     1
 10
83.64932155770904
 20
46.54286700114608
 30
0.0
 11
86.031510997221
 21
48.92505644065804
 31
0.0
  0
LINE
  8
1
  6
CONTINUOUS
 62
     1
 10
80.82089443296286
 20
46.54286700114608
 30
0.0
 11
83.82089443181678
 21
49.542867
 31
0.0
  0
LINE
  8
1
  6
CONTINUOUS
 62
     1
 10
78.631511
 20
47.18191069292941
 30
0.0
 11
80.9924673070706
 21
49.542867
 31
0.0
  0
LINE
  8
1
  6
CONTINUOUS
 62
     1
 10
-32.42731844229095
 20
-34.28780799885392
 30
0.0
 11
-30.04512900277899
 21
-31.90561855934196
 31
0.0
  0
LINE
  8
1
  6
CONTINUOUS
 62
     1
 10
-35.25574556703714
 20
-34.28780799885392
 30
0.0
 11
-32.25574556818322
 21
-31.287808
 31
0.0
  0
LINE
  8
1
  6
CONTINUOUS
 62
     1
 10
-37.44512899999999
 20
-33.64876430707059
 30
0.0
 11
-35.0841726929294
 21
-31.287808
 31
0.0
  0
POLYLINE
  8
1
  6
CONTINUOUS
 62
     2
 66
     1
 10
0.0
 20
0.0
 30
0.0
  0
VERTEX
  8
1
  6
CONTINUOUS
 62
     2
 10
21.96682300046086
 20
61.063989
 30
0.0
  0
VERTEX
  8
1
  6
CONTINUOUS
 62
     2
 10
20.96682300046086
 20
61.563989
 30
0.0
  0
VERTEX
  8
1
  6
CONTINUOUS
 62
     2
 10
20.96682300046086
 20
60.563989
 30
0.0
  0
VERTEX
  8
1
  6
CONTINUOUS
 62
     2
 10
21.96682300046086
 20
61.063989
 30
0.0
  0
SEQEND
  8
1
  6
CONTINUOUS
 62
     2
  0
POLYLINE
  8
1
  6
CONTINUOUS
 62
     2
 66
     1
 10
0.0
 20
0.0
 30
0.0
  0
VERTEX
  8
1
  6
CONTINUOUS
 62
     2
 10
11.9668230001713
 20
61.063989
 30
0.0
  0
VERTEX
  8
1
  6
CONTINUOUS
 62
     2
 10
12.9668230001713
 20
60.563989
 30
0.0
  0
VERTEX
  8
1
  6
CONTINUOUS
 62
     2
 10
12.9668230001713
 20
61.563989
 30
0.0
  0
VERTEX
  8
1
  6
CONTINUOUS
 62
     2
 10
11.9668230001713
 20
61.063989
 30
0.0
  0
SEQEND
  8
1
  6
CONTINUOUS
 62
     2
  0
LINE
  8
1
  6
CONTINUOUS
 62
     2
 10
20.96682300046086
 20
61.063989
 30
0.0
 11
12.9668230001713
 21
61.063989
 31
0.0
  0
POLYLINE
  8
1
  6
CONTINUOUS
 62
     2
 66
     1
 10
0.0
 20
0.0
 30
0.0
  0
VERTEX
  8
1
  6
CONTINUOUS
 62
     2
 10
21.96682300046086
 20
54.842867
 30
0.0
  0
VERTEX
  8
1
  6
CONTINUOUS
 62
     2
 10
21.96682300046086
 20
61.563989
 30
0.0
  0
SEQEND
  8
1
  6
CONTINUOUS
 62
     2
  0
POLYLINE
  8
1
  6
CONTINUOUS
 62
     2
 66
     1
 10
0.0
 20
0.0
 30
0.0
  0
VERTEX
  8
1
  6
CONTINUOUS
 62
     2
 10
11.9668230001713
 20
54.842867
 30
0.0
  0
VERTEX
  8
1
  6
CONTINUOUS
 62
     2
 10
11.9668230001713
 20
61.563989
 30
0.0
  0
SEQEND
  8
1
  6
CONTINUOUS
 62
     2
  0
TEXT
  8
1
  6
CONTINUOUS
 62
     7
 10
13.59182300031608
 20
61.263989
 30
0.0
 40
3.000000000000007
  1
1
 41
0.4999999999999988
  7
EXCESS_STANDARD
  0
TEXT
  8
1
  6
CONTINUOUS
 62
     7
 10
15.09182300031608
 20
61.263989
 30
0.0
 40
3.000000000000007
  1
0
 41
0.4999999999999988
  7
EXCESS_STANDARD
  0
TEXT
  8
1
  6
CONTINUOUS
 62
     7
 10
16.59182300031608
 20
61.263989
 30
0.0
 40
3.000000000000007
  1
.
 41
0.4999999999999988
  7
EXCESS_STANDARD
  0
TEXT
  8
1
  6
CONTINUOUS
 62
     7
 10
17.34182300031608
 20
61.263989
 30
0.0
 40
3.000000000000007
  1
0
 41
0.4999999999999988
  7
EXCESS_STANDARD
  0
TEXT
  8
1
  6
CONTINUOUS
 62
     7
 10
18.84182300031608
 20
61.263989
 30
0.0
 40
3.000000000000007
  1
0
 41
0.4999999999999988
  7
EXCESS_STANDARD
  0
POLYLINE
  8
1
  6
CONTINUOUS
 62
     2
 66
     1
 10
0.0
 20
0.0
 30
0.0
  0
VERTEX
  8
1
  6
CONTINUOUS
 62
     2
 10
-68.83425499999998
 20
86.702513
 30
0.0
  0
VERTEX
  8
1
  6
CONTINUOUS
 62
     2
 10
-69.83425499999998
 20
87.202513
 30
0.0
  0
VERTEX
  8
1
  6
CONTINUOUS
 62
     2
 10
-69.83425499999998
 20
86.202513
 30
0.0
  0
VERTEX
  8
1
  6
CONTINUOUS
 62
     2
 10
-68.83425499999998
 20
86.702513
 30
0.0
  0
SEQEND
  8
1
  6
CONTINUOUS
 62
     2
  0
LINE
  8
1
  6
CONTINUOUS
 62
     2
 10
-69.83425499999998
 20
86.702513
 30
0.0
 11
-70.83425499999998
 21
86.702513
 31
0.0
  0
POLYLINE
  8
1
  6
CONTINUOUS
 62
     2
 66
     1
 10
0.0
 20
0.0
 30
0.0
  0
VERTEX
  8
1
  6
CONTINUOUS
 62
     2
 10
-61.83425499999998
 20
86.702513
 30
0.0
  0
VERTEX
  8
1
  6
CONTINUOUS
 62
     2
 10
-60.83425499999998
 20
86.202513
 30
0.0
  0
VERTEX
  8
1
  6
CONTINUOUS
 62
     2
 10
-60.83425499999998
 20
87.202513
 30
0.0
  0
VERTEX
  8
1
  6
CONTINUOUS
 62
     2
 10
-61.83425499999998
 20
86.702513
 30
0.0
  0
SEQEND
  8
1
  6
CONTINUOUS
 62
     2
  0
LINE
  8
1
  6
CONTINUOUS
 62
     2
 10
-60.83425499999998
 20
86.702513
 30
0.0
 11
-59.83425499999998
 21
86.702513
 31
0.0
  0
LINE
  8
1
  6
CONTINUOUS
 62
     2
 10
-68.83425499999998
 20
86.702513
 30
0.0
 11
-61.83425499999998
 21
86.702513
 31
0.0
  0
POLYLINE
  8
1
  6
CONTINUOUS
 62
     2
 66
     1
 10
0.0
 20
0.0
 30
0.0
  0
VERTEX
  8
1
  6
CONTINUOUS
 62
     2
 10
-68.83425499999998
 20
83.11107194186603
 30
0.0
  0
VERTEX
  8
1
  6
CONTINUOUS
 62
     2
 10
-68.83425499999998
 20
87.202513
 30
0.0
  0
SEQEND
  8
1
  6
CONTINUOUS
 62
     2
  0
POLYLINE
  8
1
  6
CONTINUOUS
 62
     2
 66
     1
 10
0.0
 20
0.0
 30
0.0
  0
VERTEX
  8
1
  6
CONTINUOUS
 62
     2
 10
-61.83425499999998
 20
83.11107194186602
 30
0.0
  0
VERTEX
  8
1
  6
CONTINUOUS
 62
     2
 10
-61.83425499999998
 20
87.202513
 30
0.0
  0
SEQEND
  8
1
  6
CONTINUOUS
 62
     2
  0
TEXT
  8
1
  6
CONTINUOUS
 62
     7
 10
-67.95925499999998
 20
86.902513
 30
0.0
 40
3.0
  1
7
 41
0.5
  7
EXCESS_STANDARD
  0
TEXT
  8
1
  6
CONTINUOUS
 62
     7
 10
-66.45925499999998
 20
86.902513
 30
0.0
 40
3.0
  1
.
 41
0.5
  7
EXCESS_STANDARD
  0
TEXT
  8
1
  6
CONTINUOUS
 62
     7
 10
-65.70925499999998
 20
86.902513
 30
0.0
 40
3.0
  1
0
 41
0.5
  7
EXCESS_STANDARD
  0
TEXT
  8
1
  6
CONTINUOUS
 62
     7
 10
-64.20925499999998
 20
86.902513
 30
0.0
 40
3.0
  1
0
 41
0.5
  7
EXCESS_STANDARD
  0
POLYLINE
  8
1
  6
CONTINUOUS
 62
     2
 66
     1
 10
0.0
 20
0.0
 30
0.0
  0
VERTEX
  8
1
  6
CONTINUOUS
 62
     2
 10
-55.686282
 20
72.46366300061345
 30
0.0
  0
VERTEX
  8
1
  6
CONTINUOUS
 62
     2
 10
-55.186282
 20
73.46366300061345
 30
0.0
  0
VERTEX
  8
1
  6
CONTINUOUS
 62
     2
 10
-56.186282
 20
73.46366300061345
 30
0.0
  0
VERTEX
  8
1
  6
CONTINUOUS
 62
     2
 10
-55.686282
 20
72.46366300061345
 30
0.0
  0
SEQEND
  8
1
  6
CONTINUOUS
 62
     2
  0
LINE
  8
1
  6
CONTINUOUS
 62
     2
 10
-55.686282
 20
73.46366300061345
 30
0.0
 11
-55.686282
 21
79.213019
 31
0.0
  0
POLYLINE
  8
1
  6
CONTINUOUS
 62
     2
 66
     1
 10
0.0
 20
0.0
 30
0.0
  0
VERTEX
  8
1
  6
CONTINUOUS
 62
     2
 10
-55.686282
 20
69.46366300061345
 30
0.0
  0
VERTEX
  8
1
  6
CONTINUOUS
 62
     2
 10
-56.186282
 20
68.46366300061345
 30
0.0
  0
VERTEX
  8
1
  6
CONTINUOUS
 62
     2
 10
-55.186282
 20
68.46366300061345
 30
0.0
  0
VERTEX
  8
1
  6
CONTINUOUS
 62
     2
 10
-55.686282
 20
69.46366300061345
 30
0.0
  0
SEQEND
  8
1
  6
CONTINUOUS
 62
     2
  0
LINE
  8
1
  6
CONTINUOUS
 62
     2
 10
-55.686282
 20
68.46366300061345
 30
0.0
 11
-55.686282
 21
67.46366300061345
 31
0.0
  0
LINE
  8
1
  6
CONTINUOUS
 62
     2
 10
-55.686282
 20
72.46366300061345
 30
0.0
 11
-55.686282
 21
69.46366300061345
 31
0.0
  0
POLYLINE
  8
1
  6
CONTINUOUS
 62
     2
 66
     1
 10
0.0
 20
0.0
 30
0.0
  0
VERTEX
  8
1
  6
CONTINUOUS
 62
     2
 10
-61.53425499965739
 20
72.46366300061345
 30
0.0
  0
VERTEX
  8
1
  6
CONTINUOUS
 62
     2
 10
-55.186282
 20
72.46366300061345
 30
0.0
  0
SEQEND
  8
1
  6
CONTINUOUS
 62
     2
  0
POLYLINE
  8
1
  6
CONTINUOUS
 62
     2
 66
     1
 10
0.0
 20
0.0
 30
0.0
  0
VERTEX
  8
1
  6
CONTINUOUS
 62
     2
 10
-61.53425499965739
 20
69.46366300061345
 30
0.0
  0
VERTEX
  8
1
  6
CONTINUOUS
 62
     2
 10
-55.186282
 20
69.46366300061345
 30
0.0
  0
SEQEND
  8
1
  6
CONTINUOUS
 62
     2
  0
TEXT
  8
1
  6
CONTINUOUS
 62
     7
 10
-55.886282
 20
73.963019
 30
0.0
 40
3.0
  1
3
 50
90.0
 41
0.5
  7
EXCESS_STANDARD
  0
TEXT
  8
1
  6
CONTINUOUS
 62
     7
 10
-55.886282
 20
75.463019
 30
0.0
 40
3.0
  1
.
 50
90.0
 41
0.5
  7
EXCESS_STANDARD
  0
TEXT
  8
1
  6
CONTINUOUS
 62
     7
 10
-55.886282
 20
76.213019
 30
0.0
 40
3.0
  1
0
 50
90.0
 41
0.5
  7
EXCESS_STANDARD
  0
TEXT
  8
1
  6
CONTINUOUS
 62
     7
 10
-55.886282
 20
77.713019
 30
0.0
 40
3.0
  1
0
 50
90.0
 41
0.5
  7
EXCESS_STANDARD
  0
POLYLINE
  8
1
  6
CONTINUOUS
 62
     2
 66
     1
 10
0.0
 20
0.0
 30
0.0
  0
VERTEX
  8
1
  6
CONTINUOUS
 62
     2
 10
110.331511
 20
89.261154
 30
0.0
  0
VERTEX
  8
1
  6
CONTINUOUS
 62
     2
 10
109.331511
 20
89.761154
 30
0.0
  0
VERTEX
  8
1
  6
CONTINUOUS
 62
     2
 10
109.331511
 20
88.761154
 30
0.0
  0
VERTEX
  8
1
  6
CONTINUOUS
 62
     2
 10
110.331511
 20
89.261154
 30
0.0
  0
SEQEND
  8
1
  6
CONTINUOUS
 62
     2
  0
POLYLINE
  8
1
  6
CONTINUOUS
 62
     2
 66
     1
 10
0.0
 20
0.0
 30
0.0
  0
VERTEX
  8
1
  6
CONTINUOUS
 62
     2
 10
54.33151100000001
 20
89.261154
 30
0.0
  0
VERTEX
  8
1
  6
CONTINUOUS
 62
     2
 10
55.33151100000001
 20
88.761154
 30
0.0
  0
VERTEX
  8
1
  6
CONTINUOUS
 62
     2
 10
55.33151100000001
 20
89.761154
 30
0.0
  0
VERTEX
  8
1
  6
CONTINUOUS
 62
     2
 10
54.33151100000001
 20
89.261154
 30
0.0
  0
SEQEND
  8
1
  6
CONTINUOUS
 62
     2
  0
LINE
  8
1
  6
CONTINUOUS
 62
     2
 10
109.331511
 20
89.261154
 30
0.0
 11
55.33151100000001
 21
89.261154
 31
0.0
  0
POLYLINE
  8
1
  6
CONTINUOUS
 62
     2
 66
     1
 10
0.0
 20
0.0
 30
0.0
  0
VERTEX
  8
1
  6
CONTINUOUS
 62
     2
 10
110.331511
 20
80.51592599970233
 30
0.0
  0
VERTEX
  8
1
  6
CONTINUOUS
 62
     2
 10
110.331511
 20
89.761154
 30
0.0
  0
SEQEND
  8
1
  6
CONTINUOUS
 62
     2
  0
POLYLINE
  8
1
  6
CONTINUOUS
 62
     2
 66
     1
 10
0.0
 20
0.0
 30
0.0
  0
VERTEX
  8
1
  6
CONTINUOUS
 62
     2
 10
54.33151100000001
 20
80.51592599970233
 30
0.0
  0
VERTEX
  8
1
  6
CONTINUOUS
 62
     2
 10
54.33151100000001
 20
89.761154
 30
0.0
  0
SEQEND
  8
1
  6
CONTINUOUS
 62
     2
  0
TEXT
  8
1
  6
CONTINUOUS
 62
     7
 10
78.956511
 20
89.46115400000001
 30
0.0
 40
3.0
  1
5
 41
0.5
  7
EXCESS_STANDARD
  0
TEXT
  8
1
  6
CONTINUOUS
 62
     7
 10
80.456511
 20
89.46115400000001
 30
0.0
 40
3.0
  1
6
 41
0.5
  7
EXCESS_STANDARD
  0
TEXT
  8
1
  6
CONTINUOUS
 62
     7
 10
81.956511
 20
89.46115400000001
 30
0.0
 40
3.0
  1
.
 41
0.5
  7
EXCESS_STANDARD
  0
TEXT
  8
1
  6
CONTINUOUS
 62
     7
 10
82.706511
 20
89.46115400000001
 30
0.0
 40
3.0
  1
0
 41
0.5
  7
EXCESS_STANDARD
  0
TEXT
  8
1
  6
CONTINUOUS
 62
     7
 10
84.206511
 20
89.46115400000001
 30
0.0
 40
3.0
  1
0
 41
0.5
  7
EXCESS_STANDARD
  0
POLYLINE
  8
1
  6
CONTINUOUS
 62
     2
 66
     1
 10
0.0
 20
0.0
 30
0.0
  0
VERTEX
  8
1
  6
CONTINUOUS
 62
     2
 10
117.887661
 20
70.21592599970234
 30
0.0
  0
VERTEX
  8
1
  6
CONTINUOUS
 62
     2
 10
118.387661
 20
71.21592599970234
 30
0.0
  0
VERTEX
  8
1
  6
CONTINUOUS
 62
     2
 10
117.387661
 20
71.21592599970234
 30
0.0
  0
VERTEX
  8
1
  6
CONTINUOUS
 62
     2
 10
117.887661
 20
70.21592599970234
 30
0.0
  0
SEQEND
  8
1
  6
CONTINUOUS
 62
     2
  0
POLYLINE
  8
1
  6
CONTINUOUS
 62
     2
 66
     1
 10
0.0
 20
0.0
 30
0.0
  0
VERTEX
  8
1
  6
CONTINUOUS
 62
     2
 10
117.887661
 20
80.21592599970234
 30
0.0
  0
VERTEX
  8
1
  6
CONTINUOUS
 62
     2
 10
117.387661
 20
79.21592599970234
 30
0.0
  0
VERTEX
  8
1
  6
CONTINUOUS
 62
     2
 10
118.387661
 20
79.21592599970234
 30
0.0
  0
VERTEX
  8
1
  6
CONTINUOUS
 62
     2
 10
117.887661
 20
80.21592599970234
 30
0.0
  0
SEQEND
  8
1
  6
CONTINUOUS
 62
     2
  0
LINE
  8
1
  6
CONTINUOUS
 62
     2
 10
117.887661
 20
71.21592599970234
 30
0.0
 11
117.887661
 21
79.21592599970234
 31
0.0
  0
POLYLINE
  8
1
  6
CONTINUOUS
 62
     2
 66
     1
 10
0.0
 20
0.0
 30
0.0
  0
VERTEX
  8
1
  6
CONTINUOUS
 62
     2
 10
110.631511
 20
70.21592599970234
 30
0.0
  0
VERTEX
  8
1
  6
CONTINUOUS
 62
     2
 10
118.387661
 20
70.21592599970234
 30
0.0
  0
SEQEND
  8
1
  6
CONTINUOUS
 62
     2
  0
POLYLINE
  8
1
  6
CONTINUOUS
 62
     2
 66
     1
 10
0.0
 20
0.0
 30
0.0
  0
VERTEX
  8
1
  6
CONTINUOUS
 62
     2
 10
110.631511
 20
80.21592599970234
 30
0.0
  0
VERTEX
  8
1
  6
CONTINUOUS
 62
     2
 10
118.387661
 20
80.21592599970234
 30
0.0
  0
SEQEND
  8
1
  6
CONTINUOUS
 62
     2
  0
TEXT
  8
1
  6
CONTINUOUS
 62
     7
 10
117.687661
 20
71.84092599970234
 30
0.0
 40
3.0
  1
1
 50
90.0
 41
0.5
  7
EXCESS_STANDARD
  0
TEXT
  8
1
  6
CONTINUOUS
 62
     7
 10
117.687661
 20
73.34092599970234
 30
0.0
 40
3.0
  1
0
 50
90.0
 41
0.5
  7
EXCESS_STANDARD
  0
TEXT
  8
1
  6
CONTINUOUS
 62
     7
 10
117.687661
 20
74.84092599970234
 30
0.0
 40
3.0
  1
.
 50
90.0
 41
0.5
  7
EXCESS_STANDARD
  0
TEXT
  8
1
  6
CONTINUOUS
 62
     7
 10
117.687661
 20
75.59092599970234
 30
0.0
 40
3.0
  1
0
 50
90.0
 41
0.5
  7
EXCESS_STANDARD
  0
TEXT
  8
1
  6
CONTINUOUS
 62
     7
 10
117.687661
 20
77.09092599970234
 30
0.0
 40
3.0
  1
0
 50
90.0
 41
0.5
  7
EXCESS_STANDARD
  0
POLYLINE
  8
1
  6
CONTINUOUS
 62
     2
 66
     1
 10
0.0
 20
0.0
 30
0.0
  0
VERTEX
  8
1
  6
CONTINUOUS
 62
     2
 10
108.331511
 20
31.55527
 30
0.0
  0
VERTEX
  8
1
  6
CONTINUOUS
 62
     2
 10
107.331511
 20
32.05527
 30
0.0
  0
VERTEX
  8
1
  6
CONTINUOUS
 62
     2
 10
107.331511
 20
31.05527
 30
0.0
  0
VERTEX
  8
1
  6
CONTINUOUS
 62
     2
 10
108.331511
 20
31.55527
 30
0.0
  0
SEQEND
  8
1
  6
CONTINUOUS
 62
     2
  0
POLYLINE
  8
1
  6
CONTINUOUS
 62
     2
 66
     1
 10
0.0
 20
0.0
 30
0.0
  0
VERTEX
  8
1
  6
CONTINUOUS
 62
     2
 10
56.33151100000001
 20
31.55527000000001
 30
0.0
  0
VERTEX
  8
1
  6
CONTINUOUS
 62
     2
 10
57.33151100000001
 20
31.05527000000001
 30
0.0
  0
VERTEX
  8
1
  6
CONTINUOUS
 62
     2
 10
57.33151100000001
 20
32.05527000000001
 30
0.0
  0
VERTEX
  8
1
  6
CONTINUOUS
 62
     2
 10
56.33151100000001
 20
31.55527000000001
 30
0.0
  0
SEQEND
  8
1
  6
CONTINUOUS
 62
     2
  0
LINE
  8
1
  6
CONTINUOUS
 62
     2
 10
107.331511
 20
31.55527
 30
0.0
 11
57.33151100000001
 21
31.55527000000001
 31
0.0
  0
POLYLINE
  8
1
  6
CONTINUOUS
 62
     2
 66
     1
 10
0.0
 20
0.0
 30
0.0
  0
VERTEX
  8
1
  6
CONTINUOUS
 62
     2
 10
108.331511
 20
33.242867
 30
0.0
  0
VERTEX
  8
1
  6
CONTINUOUS
 62
     2
 10
108.331511
 20
31.05527
 30
0.0
  0
SEQEND
  8
1
  6
CONTINUOUS
 62
     2
  0
POLYLINE
  8
1
  6
CONTINUOUS
 62
     2
 66
     1
 10
0.0
 20
0.0
 30
0.0
  0
VERTEX
  8
1
  6
CONTINUOUS
 62
     2
 10
56.33151100000001
 20
33.242867
 30
0.0
  0
VERTEX
  8
1
  6
CONTINUOUS
 62
     2
 10
56.33151100000001
 20
31.05527000000001
 30
0.0
  0
SEQEND
  8
1
  6
CONTINUOUS
 62
     2
  0
TEXT
  8
1
  6
CONTINUOUS
 62
     7
 10
78.956511
 20
31.75527
 30
0.0
 40
3.0
  1
5
 41
0.5
  7
EXCESS_STANDARD
  0
TEXT
  8
1
  6
CONTINUOUS
 62
     7
 10
80.456511
 20
31.75527
 30
0.0
 40
3.0
  1
2
 41
0.5
  7
EXCESS_STANDARD
  0
TEXT
  8
1
  6
CONTINUOUS
 62
     7
 10
81.956511
 20
31.75527
 30
0.0
 40
3.0
  1
.
 41
0.5
  7
EXCESS_STANDARD
  0
TEXT
  8
1
  6
CONTINUOUS
 62
     7
 10
82.706511
 20
31.75527
 30
0.0
 40
3.0
  1
0
 41
0.5
  7
EXCESS_STANDARD
  0
TEXT
  8
1
  6
CONTINUOUS
 62
     7
 10
84.206511
 20
31.75527
 30
0.0
 40
3.0
  1
0
 41
0.5
  7
EXCESS_STANDARD
  0
POLYLINE
  8
1
  6
CONTINUOUS
 62
     2
 66
     1
 10
0.0
 20
0.0
 30
0.0
  0
VERTEX
  8
1
  6
CONTINUOUS
 62
     2
 10
110.331511
 20
25.01679
 30
0.0
  0
VERTEX
  8
1
  6
CONTINUOUS
 62
     2
 10
111.331511
 20
24.51679
 30
0.0
  0
VERTEX
  8
1
  6
CONTINUOUS
 62
     2
 10
111.331511
 20
25.51679
 30
0.0
  0
VERTEX
  8
1
  6
CONTINUOUS
 62
     2
 10
110.331511
 20
25.01679
 30
0.0
  0
SEQEND
  8
1
  6
CONTINUOUS
 62
     2
  0
LINE
  8
1
  6
CONTINUOUS
 62
     2
 10
111.331511
 20
25.01679
 30
0.0
 11
119.828402
 21
25.01679
 31
0.0
  0
POLYLINE
  8
1
  6
CONTINUOUS
 62
     2
 66
     1
 10
0.0
 20
0.0
 30
0.0
  0
VERTEX
  8
1
  6
CONTINUOUS
 62
     2
 10
108.331511
 20
25.01679
 30
0.0
  0
VERTEX
  8
1
  6
CONTINUOUS
 62
     2
 10
107.331511
 20
25.51679
 30
0.0
  0
VERTEX
  8
1
  6
CONTINUOUS
 62
     2
 10
107.331511
 20
24.51679
 30
0.0
  0
VERTEX
  8
1
  6
CONTINUOUS
 62
     2
 10
108.331511
 20
25.01679
 30
0.0
  0
SEQEND
  8
1
  6
CONTINUOUS
 62
     2
  0
LINE
  8
1
  6
CONTINUOUS
 62
     2
 10
107.331511
 20
25.01679
 30
0.0
 11
106.331511
 21
25.01679
 31
0.0
  0
LINE
  8
1
  6
CONTINUOUS
 62
     2
 10
110.331511
 20
25.01679
 30
0.0
 11
108.331511
 21
25.01679
 31
0.0
  0
POLYLINE
  8
1
  6
CONTINUOUS
 62
     2
 66
     1
 10
0.0
 20
0.0
 30
0.0
  0
VERTEX
  8
1
  6
CONTINUOUS
 62
     2
 10
110.331511
 20
33.242867
 30
0.0
  0
VERTEX
  8
1
  6
CONTINUOUS
 62
     2
 10
110.331511
 20
24.51679
 30
0.0
  0
SEQEND
  8
1
  6
CONTINUOUS
 62
     2
  0
POLYLINE
  8
1
  6
CONTINUOUS
 62
     2
 66
     1
 10
0.0
 20
0.0
 30
0.0
  0
VERTEX
  8
1
  6
CONTINUOUS
 62
     2
 10
108.331511
 20
33.242867
 30
0.0
  0
VERTEX
  8
1
  6
CONTINUOUS
 62
     2
 10
108.331511
 20
24.51679
 30
0.0
  0
SEQEND
  8
1
  6
CONTINUOUS
 62
     2
  0
TEXT
  8
1
  6
CONTINUOUS
 62
     7
 10
114.578402
 20
25.21679
 30
0.0
 40
3.0
  1
2
 41
0.5
  7
EXCESS_STANDARD
  0
TEXT
  8
1
  6
CONTINUOUS
 62
     7
 10
116.078402
 20
25.21679
 30
0.0
 40
3.0
  1
.
 41
0.5
  7
EXCESS_STANDARD
  0
TEXT
  8
1
  6
CONTINUOUS
 62
     7
 10
116.828402
 20
25.21679
 30
0.0
 40
3.0
  1
0
 41
0.5
  7
EXCESS_STANDARD
  0
TEXT
  8
1
  6
CONTINUOUS
 62
     7
 10
118.328402
 20
25.21679
 30
0.0
 40
3.0
  1
0
 41
0.5
  7
EXCESS_STANDARD
  0
POLYLINE
  8
1
  6
CONTINUOUS
 62
     2
 66
     1
 10
0.0
 20
0.0
 30
0.0
  0
VERTEX
  8
1
  6
CONTINUOUS
 62
     2
 10
56.33151100000001
 20
24.028415
 30
0.0
  0
VERTEX
  8
1
  6
CONTINUOUS
 62
     2
 10
57.33151100000001
 20
23.528415
 30
0.0
  0
VERTEX
  8
1
  6
CONTINUOUS
 62
     2
 10
57.33151100000001
 20
24.528415
 30
0.0
  0
VERTEX
  8
1
  6
CONTINUOUS
 62
     2
 10
56.33151100000001
 20
24.028415
 30
0.0
  0
SEQEND
  8
1
  6
CONTINUOUS
 62
     2
  0
LINE
  8
1
  6
CONTINUOUS
 62
     2
 10
57.33151100000001
 20
24.028415
 30
0.0
 11
58.33151100000001
 21
24.028415
 31
0.0
  0
POLYLINE
  8
1
  6
CONTINUOUS
 62
     2
 66
     1
 10
0.0
 20
0.0
 30
0.0
  0
VERTEX
  8
1
  6
CONTINUOUS
 62
     2
 10
54.33151100000001
 20
24.028415
 30
0.0
  0
VERTEX
  8
1
  6
CONTINUOUS
 62
     2
 10
53.33151100000001
 20
24.528415
 30
0.0
  0
VERTEX
  8
1
  6
CONTINUOUS
 62
     2
 10
53.33151100000001
 20
23.528415
 30
0.0
  0
VERTEX
  8
1
  6
CONTINUOUS
 62
     2
 10
54.33151100000001
 20
24.028415
 30
0.0
  0
SEQEND
  8
1
  6
CONTINUOUS
 62
     2
  0
LINE
  8
1
  6
CONTINUOUS
 62
     2
 10
53.33151100000001
 20
24.028415
 30
0.0
 11
40.75440500000002
 21
24.028415
 31
0.0
  0
LINE
  8
1
  6
CONTINUOUS
 62
     2
 10
56.33151100000001
 20
24.028415
 30
0.0
 11
54.33151100000001
 21
24.028415
 31
0.0
  0
POLYLINE
  8
1
  6
CONTINUOUS
 62
     2
 66
     1
 10
0.0
 20
0.0
 30
0.0
  0
VERTEX
  8
1
  6
CONTINUOUS
 62
     2
 10
56.33151100000001
 20
33.242867
 30
0.0
  0
VERTEX
  8
1
  6
CONTINUOUS
 62
     2
 10
56.33151100000001
 20
23.528415
 30
0.0
  0
SEQEND
  8
1
  6
CONTINUOUS
 62
     2
  0
POLYLINE
  8
1
  6
CONTINUOUS
 62
     2
 66
     1
 10
0.0
 20
0.0
 30
0.0
  0
VERTEX
  8
1
  6
CONTINUOUS
 62
     2
 10
54.33151100000001
 20
33.242867
 30
0.0
  0
VERTEX
  8
1
  6
CONTINUOUS
 62
     2
 10
54.33151100000001
 20
23.528415
 30
0.0
  0
SEQEND
  8
1
  6
CONTINUOUS
 62
     2
  0
TEXT
  8
1
  6
CONTINUOUS
 62
     7
 10
40.75440500000002
 20
24.228415
 30
0.0
 40
3.0
  1
2
 41
0.5
  7
EXCESS_STANDARD
  0
TEXT
  8
1
  6
CONTINUOUS
 62
     7
 10
42.25440500000002
 20
24.228415
 30
0.0
 40
3.0
  1
.
 41
0.5
  7
EXCESS_STANDARD
  0
TEXT
  8
1
  6
CONTINUOUS
 62
     7
 10
43.00440500000002
 20
24.228415
 30
0.0
 40
3.0
  1
0
 41
0.5
  7
EXCESS_STANDARD
  0
TEXT
  8
1
  6
CONTINUOUS
 62
     7
 10
44.50440500000002
 20
24.228415
 30
0.0
 40
3.0
  1
0
 41
0.5
  7
EXCESS_STANDARD
  0
POLYLINE
  8
1
  6
CONTINUOUS
 62
     2
 66
     1
 10
0.0
 20
0.0
 30
0.0
  0
VERTEX
  8
1
  6
CONTINUOUS
 62
     2
 10
-43.74512899999999
 20
3.146388
 30
0.0
  0
VERTEX
  8
1
  6
CONTINUOUS
 62
     2
 10
-42.74512899999999
 20
2.646388
 30
0.0
  0
VERTEX
  8
1
  6
CONTINUOUS
 62
     2
 10
-42.74512899999999
 20
3.646388
 30
0.0
  0
VERTEX
  8
1
  6
CONTINUOUS
 62
     2
 10
-43.74512899999999
 20
3.146388
 30
0.0
  0
SEQEND
  8
1
  6
CONTINUOUS
 62
     2
  0
POLYLINE
  8
1
  6
CONTINUOUS
 62
     2
 66
     1
 10
0.0
 20
0.0
 30
0.0
  0
VERTEX
  8
1
  6
CONTINUOUS
 62
     2
 10
-5.745128999999991
 20
3.146388
 30
0.0
  0
VERTEX
  8
1
  6
CONTINUOUS
 62
     2
 10
-6.745128999999991
 20
3.646388
 30
0.0
  0
VERTEX
  8
1
  6
CONTINUOUS
 62
     2
 10
-6.745128999999991
 20
2.646388
 30
0.0
  0
VERTEX
  8
1
  6
CONTINUOUS
 62
     2
 10
-5.745128999999991
 20
3.146388
 30
0.0
  0
SEQEND
  8
1
  6
CONTINUOUS
 62
     2
  0
LINE
  8
1
  6
CONTINUOUS
 62
     2
 10
-42.74512899999999
 20
3.146388
 30
0.0
 11
-6.745128999999991
 21
3.146388
 31
0.0
  0
POLYLINE
  8
1
  6
CONTINUOUS
 62
     2
 66
     1
 10
0.0
 20
0.0
 30
0.0
  0
VERTEX
  8
1
  6
CONTINUOUS
 62
     2
 10
-43.74512899999999
 20
-0.3147490002976639
 30
0.0
  0
VERTEX
  8
1
  6
CONTINUOUS
 62
     2
 10
-43.74512899999999
 20
3.646388
 30
0.0
  0
SEQEND
  8
1
  6
CONTINUOUS
 62
     2
  0
POLYLINE
  8
1
  6
CONTINUOUS
 62
     2
 66
     1
 10
0.0
 20
0.0
 30
0.0
  0
VERTEX
  8
1
  6
CONTINUOUS
 62
     2
 10
-5.745128999999991
 20
-0.3147490002976639
 30
0.0
  0
VERTEX
  8
1
  6
CONTINUOUS
 62
     2
 10
-5.745128999999991
 20
3.646388
 30
0.0
  0
SEQEND
  8
1
  6
CONTINUOUS
 62
     2
  0
TEXT
  8
1
  6
CONTINUOUS
 62
     7
 10
-28.12012899999999
 20
3.346388
 30
0.0
 40
3.0
  1
3
 41
0.5
  7
EXCESS_STANDARD
  0
TEXT
  8
1
  6
CONTINUOUS
 62
     7
 10
-26.62012899999999
 20
3.346388
 30
0.0
 40
3.0
  1
8
 41
0.5
  7
EXCESS_STANDARD
  0
TEXT
  8
1
  6
CONTINUOUS
 62
     7
 10
-25.12012899999999
 20
3.346388
 30
0.0
 40
3.0
  1
.
 41
0.5
  7
EXCESS_STANDARD
  0
TEXT
  8
1
  6
CONTINUOUS
 62
     7
 10
-24.37012899999999
 20
3.346388
 30
0.0
 40
3.0
  1
0
 41
0.5
  7
EXCESS_STANDARD
  0
TEXT
  8
1
  6
CONTINUOUS
 62
     7
 10
-22.87012899999999
 20
3.346388
 30
0.0
 40
3.0
  1
0
 41
0.5
  7
EXCESS_STANDARD
  0
POLYLINE
  8
1
  6
CONTINUOUS
 62
     2
 66
     1
 10
0.0
 20
0.0
 30
0.0
  0
VERTEX
  8
1
  6
CONTINUOUS
 62
     2
 10
-2.934484999999995
 20
-10.61474900029766
 30
0.0
  0
VERTEX
  8
1
  6
CONTINUOUS
 62
     2
 10
-2.434484999999995
 20
-9.614749000297664
 30
0.0
  0
VERTEX
  8
1
  6
CONTINUOUS
 62
     2
 10
-3.434484999999995
 20
-9.614749000297664
 30
0.0
  0
VERTEX
  8
1
  6
CONTINUOUS
 62
     2
 10
-2.934484999999995
 20
-10.61474900029766
 30
0.0
  0
SEQEND
  8
1
  6
CONTINUOUS
 62
     2
  0
POLYLINE
  8
1
  6
CONTINUOUS
 62
     2
 66
     1
 10
0.0
 20
0.0
 30
0.0
  0
VERTEX
  8
1
  6
CONTINUOUS
 62
     2
 10
-2.934484999999995
 20
-0.6147490002976639
 30
0.0
  0
VERTEX
  8
1
  6
CONTINUOUS
 62
     2
 10
-3.434484999999995
 20
-1.614749000297664
 30
0.0
  0
VERTEX
  8
1
  6
CONTINUOUS
 62
     2
 10
-2.434484999999995
 20
-1.614749000297664
 30
0.0
  0
VERTEX
  8
1
  6
CONTINUOUS
 62
     2
 10
-2.934484999999995
 20
-0.6147490002976639
 30
0.0
  0
SEQEND
  8
1
  6
CONTINUOUS
 62
     2
  0
LINE
  8
1
  6
CONTINUOUS
 62
     2
 10
-2.934484999999995
 20
-9.614749000297664
 30
0.0
 11
-2.934484999999995
 21
-1.614749000297664
 31
0.0
  0
POLYLINE
  8
1
  6
CONTINUOUS
 62
     2
 66
     1
 10
0.0
 20
0.0
 30
0.0
  0
VERTEX
  8
1
  6
CONTINUOUS
 62
     2
 10
-5.445128999999992
 20
-10.61474900029766
 30
0.0
  0
VERTEX
  8
1
  6
CONTINUOUS
 62
     2
 10
-2.434484999999995
 20
-10.61474900029766
 30
0.0
  0
SEQEND
  8
1
  6
CONTINUOUS
 62
     2
  0
POLYLINE
  8
1
  6
CONTINUOUS
 62
     2
 66
     1
 10
0.0
 20
0.0
 30
0.0
  0
VERTEX
  8
1
  6
CONTINUOUS
 62
     2
 10
-5.445128999999992
 20
-0.6147490002976639
 30
0.0
  0
VERTEX
  8
1
  6
CONTINUOUS
 62
     2
 10
-2.434484999999995
 20
-0.6147490002976639
 30
0.0
  0
SEQEND
  8
1
  6
CONTINUOUS
 62
     2
  0
TEXT
  8
1
  6
CONTINUOUS
 62
     7
 10
-3.134484999999994
 20
-8.989749000297664
 30
0.0
 40
3.0
  1
1
 50
90.0
 41
0.5
  7
EXCESS_STANDARD
  0
TEXT
  8
1
  6
CONTINUOUS
 62
     7
 10
-3.134484999999994
 20
-7.489749000297664
 30
0.0
 40
3.0
  1
0
 50
90.0
 41
0.5
  7
EXCESS_STANDARD
  0
TEXT
  8
1
  6
CONTINUOUS
 62
     7
 10
-3.134484999999994
 20
-5.989749000297664
 30
0.0
 40
3.0
  1
.
 50
90.0
 41
0.5
  7
EXCESS_STANDARD
  0
TEXT
  8
1
  6
CONTINUOUS
 62
     7
 10
-3.134484999999994
 20
-5.239749000297664
 30
0.0
 40
3.0
  1
0
 50
90.0
 41
0.4999999999999999
  7
EXCESS_STANDARD
  0
TEXT
  8
1
  6
CONTINUOUS
 62
     7
 10
-3.134484999999994
 20
-3.739749000297664
 30
0.0
 40
3.0
  1
0
 50
90.0
 41
0.4999999999999999
  7
EXCESS_STANDARD
  0
POLYLINE
  8
1
  6
CONTINUOUS
 62
     2
 66
     1
 10
0.0
 20
0.0
 30
0.0
  0
VERTEX
  8
1
  6
CONTINUOUS
 62
     2
 10
-0.5311939999999993
 20
-26.287808
 30
0.0
  0
VERTEX
  8
1
  6
CONTINUOUS
 62
     2
 10
-1.031194
 20
-27.287808
 30
0.0
  0
VERTEX
  8
1
  6
CONTINUOUS
 62
     2
 10
-0.0311939999999996
 20
-27.287808
 30
0.0
  0
VERTEX
  8
1
  6
CONTINUOUS
 62
     2
 10
-0.5311939999999993
 20
-26.287808
 30
0.0
  0
SEQEND
  8
1
  6
CONTINUOUS
 62
     2
  0
POLYLINE
  8
1
  6
CONTINUOUS
 62
     2
 66
     1
 10
0.0
 20
0.0
 30
0.0
  0
VERTEX
  8
1
  6
CONTINUOUS
 62
     2
 10
-0.5311940000000032
 20
-47.287808
 30
0.0
  0
VERTEX
  8
1
  6
CONTINUOUS
 62
     2
 10
-0.0311940000000029
 20
-46.287808
 30
0.0
  0
VERTEX
  8
1
  6
CONTINUOUS
 62
     2
 10
-1.031194000000003
 20
-46.287808
 30
0.0
  0
VERTEX
  8
1
  6
CONTINUOUS
 62
     2
 10
-0.5311940000000032
 20
-47.287808
 30
0.0
  0
SEQEND
  8
1
  6
CONTINUOUS
 62
     2
  0
LINE
  8
1
  6
CONTINUOUS
 62
     2
 10
-0.5311939999999996
 20
-27.287808
 30
0.0
 11
-0.5311940000000029
 21
-46.287808
 31
0.0
  0
POLYLINE
  8
1
  6
CONTINUOUS
 62
     2
 66
     1
 10
0.0
 20
0.0
 30
0.0
  0
VERTEX
  8
1
  6
CONTINUOUS
 62
     2
 10
-5.445128999999992
 20
-26.287808
 30
0.0
  0
VERTEX
  8
1
  6
CONTINUOUS
 62
     2
 10
-0.0311939999999993
 20
-26.287808
 30
0.0
  0
SEQEND
  8
1
  6
CONTINUOUS
 62
     2
  0
POLYLINE
  8
1
  6
CONTINUOUS
 62
     2
 66
     1
 10
0.0
 20
0.0
 30
0.0
  0
VERTEX
  8
1
  6
CONTINUOUS
 62
     2
 10
-5.445128999999992
 20
-47.287808
 30
0.0
  0
VERTEX
  8
1
  6
CONTINUOUS
 62
     2
 10
-0.0311940000000032
 20
-47.287808
 30
0.0
  0
SEQEND
  8
1
  6
CONTINUOUS
 62
     2
  0
TEXT
  8
1
  6
CONTINUOUS
 62
     7
 10
-0.7311940000000012
 20
-40.162808
 30
0.0
 40
3.0
  1
2
 50
90.0
 41
0.5
  7
EXCESS_STANDARD
  0
TEXT
  8
1
  6
CONTINUOUS
 62
     7
 10
-0.7311940000000011
 20
-38.662808
 30
0.0
 40
3.0
  1
1
 50
90.0
 41
0.5
  7
EXCESS_STANDARD
  0
TEXT
  8
1
  6
CONTINUOUS
 62
     7
 10
-0.731194000000001
 20
-37.162808
 30
0.0
 40
3.0
  1
.
 50
90.0
 41
0.5
  7
EXCESS_STANDARD
  0
TEXT
  8
1
  6
CONTINUOUS
 62
     7
 10
-0.731194000000001
 20
-36.412808
 30
0.0
 40
3.0
  1
0
 50
90.0
 41
0.5
  7
EXCESS_STANDARD
  0
TEXT
  8
1
  6
CONTINUOUS
 62
     7
 10
-0.7311940000000009
 20
-34.912808
 30
0.0
 40
3.0
  1
0
 50
90.0
 41
0.5
  7
EXCESS_STANDARD
  0
POLYLINE
  8
1
  6
CONTINUOUS
 62
     2
 66
     1
 10
0.0
 20
0.0
 30
0.0
  0
VERTEX
  8
1
  6
CONTINUOUS
 62
     2
 10
-48.44195499999999
 20
-29.787808
 30
0.0
  0
VERTEX
  8
1
  6
CONTINUOUS
 62
     2
 10
-47.94195499999999
 20
-28.787808
 30
0.0
  0
VERTEX
  8
1
  6
CONTINUOUS
 62
     2
 10
-48.94195499999999
 20
-28.787808
 30
0.0
  0
VERTEX
  8
1
  6
CONTINUOUS
 62
     2
 10
-48.44195499999999
 20
-29.787808
 30
0.0
  0
SEQEND
  8
1
  6
CONTINUOUS
 62
     2
  0
LINE
  8
1
  6
CONTINUOUS
 62
     2
 10
-48.44195499999999
 20
-28.787808
 30
0.0
 11
-48.44195499999999
 21
-19.812029
 31
0.0
  0
POLYLINE
  8
1
  6
CONTINUOUS
 62
     2
 66
     1
 10
0.0
 20
0.0
 30
0.0
  0
VERTEX
  8
1
  6
CONTINUOUS
 62
     2
 10
-48.44195499999999
 20
-34.287808
 30
0.0
  0
VERTEX
  8
1
  6
CONTINUOUS
 62
     2
 10
-48.94195499999999
 20
-35.287808
 30
0.0
  0
VERTEX
  8
1
  6
CONTINUOUS
 62
     2
 10
-47.94195499999999
 20
-35.287808
 30
0.0
  0
VERTEX
  8
1
  6
CONTINUOUS
 62
     2
 10
-48.44195499999999
 20
-34.287808
 30
0.0
  0
SEQEND
  8
1
  6
CONTINUOUS
 62
     2
  0
LINE
  8
1
  6
CONTINUOUS
 62
     2
 10
-48.44195499999999
 20
-35.287808
 30
0.0
 11
-48.44195499999999
 21
-36.287808
 31
0.0
  0
LINE
  8
1
  6
CONTINUOUS
 62
     2
 10
-48.44195499999999
 20
-29.787808
 30
0.0
 11
-48.44195499999999
 21
-34.287808
 31
0.0
  0
POLYLINE
  8
1
  6
CONTINUOUS
 62
     2
 66
     1
 10
0.0
 20
0.0
 30
0.0
  0
VERTEX
  8
1
  6
CONTINUOUS
 62
     2
 10
-44.04512899999999
 20
-29.787808
 30
0.0
  0
VERTEX
  8
1
  6
CONTINUOUS
 62
     2
 10
-48.94195499999999
 20
-29.787808
 30
0.0
  0
SEQEND
  8
1
  6
CONTINUOUS
 62
     2
  0
POLYLINE
  8
1
  6
CONTINUOUS
 62
     2
 66
     1
 10
0.0
 20
0.0
 30
0.0
  0
VERTEX
  8
1
  6
CONTINUOUS
 62
     2
 10
-44.04512899999999
 20
-34.287808
 30
0.0
  0
VERTEX
  8
1
  6
CONTINUOUS
 62
     2
 10
-48.94195499999999
 20
-34.287808
 30
0.0
  0
SEQEND
  8
1
  6
CONTINUOUS
 62
     2
  0
TEXT
  8
1
  6
CONTINUOUS
 62
     7
 10
-48.64195499999999
 20
-25.062029
 30
0.0
 40
3.0
  1
4
 50
90.0
 41
0.5
  7
EXCESS_STANDARD
  0
TEXT
  8
1
  6
CONTINUOUS
 62
     7
 10
-48.64195499999999
 20
-23.562029
 30
0.0
 40
3.0
  1
.
 50
90.0
 41
0.5
  7
EXCESS_STANDARD
  0
TEXT
  8
1
  6
CONTINUOUS
 62
     7
 10
-48.64195499999999
 20
-22.812029
 30
0.0
 40
3.0
  1
5
 50
90.0
 41
0.5
  7
EXCESS_STANDARD
  0
TEXT
  8
1
  6
CONTINUOUS
 62
     7
 10
-48.64195499999999
 20
-21.312029
 30
0.0
 40
3.0
  1
0
 50
90.0
 41
0.5
  7
EXCESS_STANDARD
  0
POLYLINE
  8
1
  6
CONTINUOUS
 62
     2
 66
     1
 10
0.0
 20
0.0
 30
0.0
  0
VERTEX
  8
1
  6
CONTINUOUS
 62
     2
 10
-5.745128999999992
 20
-51.354043
 30
0.0
  0
VERTEX
  8
1
  6
CONTINUOUS
 62
     2
 10
-4.745128999999992
 20
-51.854043
 30
0.0
  0
VERTEX
  8
1
  6
CONTINUOUS
 62
     2
 10
-4.745128999999992
 20
-50.854043
 30
0.0
  0
VERTEX
  8
1
  6
CONTINUOUS
 62
     2
 10
-5.745128999999992
 20
-51.354043
 30
0.0
  0
SEQEND
  8
1
  6
CONTINUOUS
 62
     2
  0
LINE
  8
1
  6
CONTINUOUS
 62
     2
 10
-4.745128999999992
 20
-51.354043
 30
0.0
 11
2.636484000000009
 21
-51.354043
 31
0.0
  0
POLYLINE
  8
1
  6
CONTINUOUS
 62
     2
 66
     1
 10
0.0
 20
0.0
 30
0.0
  0
VERTEX
  8
1
  6
CONTINUOUS
 62
     2
 10
-7.745128999999992
 20
-51.354043
 30
0.0
  0
VERTEX
  8
1
  6
CONTINUOUS
 62
     2
 10
-8.745128999999991
 20
-50.854043
 30
0.0
  0
VERTEX
  8
1
  6
CONTINUOUS
 62
     2
 10
-8.745128999999991
 20
-51.854043
 30
0.0
  0
VERTEX
  8
1
  6
CONTINUOUS
 62
     2
 10
-7.745128999999992
 20
-51.354043
 30
0.0
  0
SEQEND
  8
1
  6
CONTINUOUS
 62
     2
  0
LINE
  8
1
  6
CONTINUOUS
 62
     2
 10
-8.745128999999991
 20
-51.354043
 30
0.0
 11
-9.745128999999991
 21
-51.354043
 31
0.0
  0
LINE
  8
1
  6
CONTINUOUS
 62
     2
 10
-5.745128999999992
 20
-51.354043
 30
0.0
 11
-7.745128999999992
 21
-51.354043
 31
0.0
  0
POLYLINE
  8
1
  6
CONTINUOUS
 62
     2
 66
     1
 10
0.0
 20
0.0
 30
0.0
  0
VERTEX
  8
1
  6
CONTINUOUS
 62
     2
 10
-5.745128999999991
 20
-47.587808
 30
0.0
  0
VERTEX
  8
1
  6
CONTINUOUS
 62
     2
 10
-5.745128999999992
 20
-51.854043
 30
0.0
  0
SEQEND
  8
1
  6
CONTINUOUS
 62
     2
  0
POLYLINE
  8
1
  6
CONTINUOUS
 62
     2
 66
     1
 10
0.0
 20
0.0
 30
0.0
  0
VERTEX
  8
1
  6
CONTINUOUS
 62
     2
 10
-7.745128999999991
 20
-47.587808
 30
0.0
  0
VERTEX
  8
1
  6
CONTINUOUS
 62
     2
 10
-7.745128999999992
 20
-51.854043
 30
0.0
  0
SEQEND
  8
1
  6
CONTINUOUS
 62
     2
  0
TEXT
  8
1
  6
CONTINUOUS
 62
     7
 10
-2.613515999999991
 20
-51.15404299999999
 30
0.0
 40
3.0
  1
2
 41
0.5
  7
EXCESS_STANDARD
  0
TEXT
  8
1
  6
CONTINUOUS
 62
     7
 10
-1.113515999999991
 20
-51.15404299999999
 30
0.0
 40
3.0
  1
.
 41
0.5
  7
EXCESS_STANDARD
  0
TEXT
  8
1
  6
CONTINUOUS
 62
     7
 10
-0.3635159999999908
 20
-51.15404299999999
 30
0.0
 40
3.0
  1
0
 41
0.5
  7
EXCESS_STANDARD
  0
TEXT
  8
1
  6
CONTINUOUS
 62
     7
 10
1.136484000000009
 20
-51.15404299999999
 30
0.0
 40
3.0
  1
0
 41
0.5
  7
EXCESS_STANDARD
  0
POLYLINE
  8
1
  6
CONTINUOUS
 62
     2
 66
     1
 10
0.0
 20
0.0
 30
0.0
  0
VERTEX
  8
1
  6
CONTINUOUS
 62
     2
 10
-5.745128999999993
 20
-56.703303
 30
0.0
  0
VERTEX
  8
1
  6
CONTINUOUS
 62
     2
 10
-6.745128999999993
 20
-56.203303
 30
0.0
  0
VERTEX
  8
1
  6
CONTINUOUS
 62
     2
 10
-6.745128999999993
 20
-57.203303
 30
0.0
  0
VERTEX
  8
1
  6
CONTINUOUS
 62
     2
 10
-5.745128999999993
 20
-56.703303
 30
0.0
  0
SEQEND
  8
1
  6
CONTINUOUS
 62
     2
  0
POLYLINE
  8
1
  6
CONTINUOUS
 62
     2
 66
     1
 10
0.0
 20
0.0
 30
0.0
  0
VERTEX
  8
1
  6
CONTINUOUS
 62
     2
 10
-43.74512899999999
 20
-56.70330299999999
 30
0.0
  0
VERTEX
  8
1
  6
CONTINUOUS
 62
     2
 10
-42.74512899999999
 20
-57.20330299999999
 30
0.0
  0
VERTEX
  8
1
  6
CONTINUOUS
 62
     2
 10
-42.74512899999999
 20
-56.20330299999999
 30
0.0
  0
VERTEX
  8
1
  6
CONTINUOUS
 62
     2
 10
-43.74512899999999
 20
-56.70330299999999
 30
0.0
  0
SEQEND
  8
1
  6
CONTINUOUS
 62
     2
  0
LINE
  8
1
  6
CONTINUOUS
 62
     2
 10
-6.745128999999993
 20
-56.703303
 30
0.0
 11
-42.74512899999999
 21
-56.70330299999999
 31
0.0
  0
POLYLINE
  8
1
  6
CONTINUOUS
 62
     2
 66
     1
 10
0.0
 20
0.0
 30
0.0
  0
VERTEX
  8
1
  6
CONTINUOUS
 62
     2
 10
-5.745128999999991
 20
-47.587808
 30
0.0
  0
VERTEX
  8
1
  6
CONTINUOUS
 62
     2
 10
-5.745128999999993
 20
-57.203303
 30
0.0
  0
SEQEND
  8
1
  6
CONTINUOUS
 62
     2
  0
POLYLINE
  8
1
  6
CONTINUOUS
 62
     2
 66
     1
 10
0.0
 20
0.0
 30
0.0
  0
VERTEX
  8
1
  6
CONTINUOUS
 62
     2
 10
-43.74512899999999
 20
-34.587808
 30
0.0
  0
VERTEX
  8
1
  6
CONTINUOUS
 62
     2
 10
-43.74512899999999
 20
-57.20330299999999
 30
0.0
  0
SEQEND
  8
1
  6
CONTINUOUS
 62
     2
  0
TEXT
  8
1
  6
CONTINUOUS
 62
     7
 10
-28.12012899999999
 20
-56.503303
 30
0.0
 40
3.0
  1
3
 41
0.5
  7
EXCESS_STANDARD
  0
TEXT
  8
1
  6
CONTINUOUS
 62
     7
 10
-26.62012899999999
 20
-56.503303
 30
0.0
 40
3.0
  1
8
 41
0.5
  7
EXCESS_STANDARD
  0
TEXT
  8
1
  6
CONTINUOUS
 62
     7
 10
-25.12012899999999
 20
-56.503303
 30
0.0
 40
3.0
  1
.
 41
0.5
  7
EXCESS_STANDARD
  0
TEXT
  8
1
  6
CONTINUOUS
 62
     7
 10
-24.37012899999999
 20
-56.503303
 30
0.0
 40
3.0
  1
0
 41
0.5
  7
EXCESS_STANDARD
  0
TEXT
  8
1
  6
CONTINUOUS
 62
     7
 10
-22.87012899999999
 20
-56.503303
 30
0.0
 40
3.0
  1
0
 41
0.5
  7
EXCESS_STANDARD
  0
POLYLINE
  8
1
  6
CONTINUOUS
 62
     2
 66
     1
 10
0.0
 20
0.0
 30
0.0
  0
VERTEX
  8
1
  6
CONTINUOUS
 62
     2
 10
-5.745128999999991
 20
-21.89435
 30
0.0
  0
VERTEX
  8
1
  6
CONTINUOUS
 62
     2
 10
-6.745128999999991
 20
-21.39435
 30
0.0
  0
VERTEX
  8
1
  6
CONTINUOUS
 62
     2
 10
-6.745128999999991
 20
-22.39435
 30
0.0
  0
VERTEX
  8
1
  6
CONTINUOUS
 62
     2
 10
-5.745128999999991
 20
-21.89435
 30
0.0
  0
SEQEND
  8
1
  6
CONTINUOUS
 62
     2
  0
POLYLINE
  8
1
  6
CONTINUOUS
 62
     2
 66
     1
 10
0.0
 20
0.0
 30
0.0
  0
VERTEX
  8
1
  6
CONTINUOUS
 62
     2
 10
-26.24512899999999
 20
-21.89435
 30
0.0
  0
VERTEX
  8
1
  6
CONTINUOUS
 62
     2
 10
-25.24512899999999
 20
-22.39435
 30
0.0
  0
VERTEX
  8
1
  6
CONTINUOUS
 62
     2
 10
-25.24512899999999
 20
-21.39435
 30
0.0
  0
VERTEX
  8
1
  6
CONTINUOUS
 62
     2
 10
-26.24512899999999
 20
-21.89435
 30
0.0
  0
SEQEND
  8
1
  6
CONTINUOUS
 62
     2
  0
LINE
  8
1
  6
CONTINUOUS
 62
     2
 10
-6.745128999999991
 20
-21.89435
 30
0.0
 11
-25.24512899999999
 21
-21.89435
 31
0.0
  0
POLYLINE
  8
1
  6
CONTINUOUS
 62
     2
 66
     1
 10
0.0
 20
0.0
 30
0.0
  0
VERTEX
  8
1
  6
CONTINUOUS
 62
     2
 10
-5.745128999999991
 20
-25.987808
 30
0.0
  0
VERTEX
  8
1
  6
CONTINUOUS
 62
     2
 10
-5.745128999999991
 20
-21.39435
 30
0.0
  0
SEQEND
  8
1
  6
CONTINUOUS
 62
     2
  0
POLYLINE
  8
1
  6
CONTINUOUS
 62
     2
 66
     1
 10
0.0
 20
0.0
 30
0.0
  0
VERTEX
  8
1
  6
CONTINUOUS
 62
     2
 10
-26.24512899999999
 20
-25.987808
 30
0.0
  0
VERTEX
  8
1
  6
CONTINUOUS
 62
     2
 10
-26.24512899999999
 20
-21.39435
 30
0.0
  0
SEQEND
  8
1
  6
CONTINUOUS
 62
     2
  0
TEXT
  8
1
  6
CONTINUOUS
 62
     7
 10
-19.37012899999999
 20
-21.69435
 30
0.0
 40
3.0
  1
2
 41
0.5
  7
EXCESS_STANDARD
  0
TEXT
  8
1
  6
CONTINUOUS
 62
     7
 10
-17.87012899999999
 20
-21.69435
 30
0.0
 40
3.0
  1
0
 41
0.5
  7
EXCESS_STANDARD
  0
TEXT
  8
1
  6
CONTINUOUS
 62
     7
 10
-16.37012899999999
 20
-21.69435
 30
0.0
 40
3.0
  1
.
 41
0.5
  7
EXCESS_STANDARD
  0
TEXT
  8
1
  6
CONTINUOUS
 62
     7
 10
-15.62012899999999
 20
-21.69435
 30
0.0
 40
3.0
  1
5
 41
0.5
  7
EXCESS_STANDARD
  0
TEXT
  8
1
  6
CONTINUOUS
 62
     7
 10
-14.12012899999999
 20
-21.69435
 30
0.0
 40
3.0
  1
0
 41
0.5
  7
EXCESS_STANDARD
  0
POLYLINE
  8
1
  6
CONTINUOUS
 62
     2
 66
     1
 10
0.0
 20
0.0
 30
0.0
  0
VERTEX
  8
1
  6
CONTINUOUS
 62
     2
 10
-30.68861499999998
 20
-26.287808
 30
0.0
  0
VERTEX
  8
1
  6
CONTINUOUS
 62
     2
 10
-30.18861499999998
 20
-25.287808
 30
0.0
  0
VERTEX
  8
1
  6
CONTINUOUS
 62
     2
 10
-31.18861499999998
 20
-25.287808
 30
0.0
  0
VERTEX
  8
1
  6
CONTINUOUS
 62
     2
 10
-30.68861499999998
 20
-26.287808
 30
0.0
  0
SEQEND
  8
1
  6
CONTINUOUS
 62
     2
  0
LINE
  8
1
  6
CONTINUOUS
 62
     2
 10
-30.68861499999998
 20
-25.287808
 30
0.0
 11
-30.68861499999998
 21
-18.57162100000001
 31
0.0
  0
POLYLINE
  8
1
  6
CONTINUOUS
 62
     2
 66
     1
 10
0.0
 20
0.0
 30
0.0
  0
VERTEX
  8
1
  6
CONTINUOUS
 62
     2
 10
-30.68861499999998
 20
-29.787808
 30
0.0
  0
VERTEX
  8
1
  6
CONTINUOUS
 62
     2
 10
-31.18861499999998
 20
-30.787808
 30
0.0
  0
VERTEX
  8
1
  6
CONTINUOUS
 62
     2
 10
-30.18861499999998
 20
-30.787808
 30
0.0
  0
VERTEX
  8
1
  6
CONTINUOUS
 62
     2
 10
-30.68861499999998
 20
-29.787808
 30
0.0
  0
SEQEND
  8
1
  6
CONTINUOUS
 62
     2
  0
LINE
  8
1
  6
CONTINUOUS
 62
     2
 10
-30.68861499999998
 20
-30.787808
 30
0.0
 11
-30.68861499999998
 21
-31.787808
 31
0.0
  0
LINE
  8
1
  6
CONTINUOUS
 62
     2
 10
-30.68861499999998
 20
-26.287808
 30
0.0
 11
-30.68861499999998
 21
-29.787808
 31
0.0
  0
POLYLINE
  8
1
  6
CONTINUOUS
 62
     2
 66
     1
 10
0.0
 20
0.0
 30
0.0
  0
VERTEX
  8
1
  6
CONTINUOUS
 62
     2
 10
-26.54512899999999
 20
-26.287808
 30
0.0
  0
VERTEX
  8
1
  6
CONTINUOUS
 62
     2
 10
-31.18861499999998
 20
-26.287808
 30
0.0
  0
SEQEND
  8
1
  6
CONTINUOUS
 62
     2
  0
POLYLINE
  8
1
  6
CONTINUOUS
 62
     2
 66
     1
 10
0.0
 20
0.0
 30
0.0
  0
VERTEX
  8
1
  6
CONTINUOUS
 62
     2
 10
-26.54512899999999
 20
-29.787808
 30
0.0
  0
VERTEX
  8
1
  6
CONTINUOUS
 62
     2
 10
-31.18861499999998
 20
-29.787808
 30
0.0
  0
SEQEND
  8
1
  6
CONTINUOUS
 62
     2
  0
TEXT
  8
1
  6
CONTINUOUS
 62
     7
 10
-30.88861499999999
 20
-23.82162100000001
 30
0.0
 40
3.0
  1
3
 50
90.0
 41
0.5
  7
EXCESS_STANDARD
  0
TEXT
  8
1
  6
CONTINUOUS
 62
     7
 10
-30.88861499999999
 20
-22.32162100000001
 30
0.0
 40
3.0
  1
.
 50
90.0
 41
0.5
  7
EXCESS_STANDARD
  0
TEXT
  8
1
  6
CONTINUOUS
 62
     7
 10
-30.88861499999999
 20
-21.57162100000001
 30
0.0
 40
3.0
  1
5
 50
90.0
 41
0.5
  7
EXCESS_STANDARD
  0
TEXT
  8
1
  6
CONTINUOUS
 62
     7
 10
-30.88861499999999
 20
-20.07162100000001
 30
0.0
 40
3.0
  1
0
 50
90.0
 41
0.5
  7
EXCESS_STANDARD
  0
POLYLINE
  8
1
  6
CONTINUOUS
 62
     2
 66
     1
 10
0.0
 20
0.0
 30
0.0
  0
VERTEX
  8
1
  6
CONTINUOUS
 62
     2
 10
-108.369168
 20
-26.28780799999999
 30
0.0
  0
VERTEX
  8
1
  6
CONTINUOUS
 62
     2
 10
-108.869168
 20
-27.28780799999999
 30
0.0
  0
VERTEX
  8
1
  6
CONTINUOUS
 62
     2
 10
-107.869168
 20
-27.28780799999999
 30
0.0
  0
VERTEX
  8
1
  6
CONTINUOUS
 62
     2
 10
-108.369168
 20
-26.28780799999999
 30
0.0
  0
SEQEND
  8
1
  6
CONTINUOUS
 62
     2
  0
POLYLINE
  8
1
  6
CONTINUOUS
 62
     2
 66
     1
 10
0.0
 20
0.0
 30
0.0
  0
VERTEX
  8
1
  6
CONTINUOUS
 62
     2
 10
-108.369168
 20
-47.287808
 30
0.0
  0
VERTEX
  8
1
  6
CONTINUOUS
 62
     2
 10
-107.869168
 20
-46.287808
 30
0.0
  0
VERTEX
  8
1
  6
CONTINUOUS
 62
     2
 10
-108.869168
 20
-46.287808
 30
0.0
  0
VERTEX
  8
1
  6
CONTINUOUS
 62
     2
 10
-108.369168
 20
-47.287808
 30
0.0
  0
SEQEND
  8
1
  6
CONTINUOUS
 62
     2
  0
LINE
  8
1
  6
CONTINUOUS
 62
     2
 10
-108.369168
 20
-27.28780799999999
 30
0.0
 11
-108.369168
 21
-46.287808
 31
0.0
  0
POLYLINE
  8
1
  6
CONTINUOUS
 62
     2
 66
     1
 10
0.0
 20
0.0
 30
0.0
  0
VERTEX
  8
1
  6
CONTINUOUS
 62
     2
 10
-93.35423500003823
 20
-26.287808
 30
0.0
  0
VERTEX
  8
1
  6
CONTINUOUS
 62
     2
 10
-108.869168
 20
-26.28780799999999
 30
0.0
  0
SEQEND
  8
1
  6
CONTINUOUS
 62
     2
  0
POLYLINE
  8
1
  6
CONTINUOUS
 62
     2
 66
     1
 10
0.0
 20
0.0
 30
0.0
  0
VERTEX
  8
1
  6
CONTINUOUS
 62
     2
 10
-93.35423500003823
 20
-47.287808
 30
0.0
  0
VERTEX
  8
1
  6
CONTINUOUS
 62
     2
 10
-108.869168
 20
-47.287808
 30
0.0
  0
SEQEND
  8
1
  6
CONTINUOUS
 62
     2
  0
TEXT
  8
1
  6
CONTINUOUS
 62
     7
 10
-108.569168
 20
-40.162808
 30
0.0
 40
3.0
  1
2
 50
90.0
 41
0.5
  7
EXCESS_STANDARD
  0
TEXT
  8
1
  6
CONTINUOUS
 62
     7
 10
-108.569168
 20
-38.662808
 30
0.0
 40
3.0
  1
1
 50
90.0
 41
0.5
  7
EXCESS_STANDARD
  0
TEXT
  8
1
  6
CONTINUOUS
 62
     7
 10
-108.569168
 20
-37.162808
 30
0.0
 40
3.0
  1
.
 50
90.0
 41
0.5
  7
EXCESS_STANDARD
  0
TEXT
  8
1
  6
CONTINUOUS
 62
     7
 10
-108.569168
 20
-36.412808
 30
0.0
 40
3.0
  1
0
 50
90.0
 41
0.5
  7
EXCESS_STANDARD
  0
TEXT
  8
1
  6
CONTINUOUS
 62
     7
 10
-108.569168
 20
-34.912808
 30
0.0
 40
3.0
  1
0
 50
90.0
 41
0.5
  7
EXCESS_STANDARD
  0
POLYLINE
  8
1
  6
CONTINUOUS
 62
     2
 66
     1
 10
0.0
 20
0.0
 30
0.0
  0
VERTEX
  8
1
  6
CONTINUOUS
 62
     2
 10
-93.05423500003823
 20
-19.568585
 30
0.0
  0
VERTEX
  8
1
  6
CONTINUOUS
 62
     2
 10
-92.05423500003823
 20
-20.068585
 30
0.0
  0
VERTEX
  8
1
  6
CONTINUOUS
 62
     2
 10
-92.05423500003823
 20
-19.068585
 30
0.0
  0
VERTEX
  8
1
  6
CONTINUOUS
 62
     2
 10
-93.05423500003823
 20
-19.568585
 30
0.0
  0
SEQEND
  8
1
  6
CONTINUOUS
 62
     2
  0
POLYLINE
  8
1
  6
CONTINUOUS
 62
     2
 66
     1
 10
0.0
 20
0.0
 30
0.0
  0
VERTEX
  8
1
  6
CONTINUOUS
 62
     2
 10
-59.05423500003823
 20
-19.568585
 30
0.0
  0
VERTEX
  8
1
  6
CONTINUOUS
 62
     2
 10
-60.05423500003823
 20
-19.068585
 30
0.0
  0
VERTEX
  8
1
  6
CONTINUOUS
 62
     2
 10
-60.05423500003823
 20
-20.068585
 30
0.0
  0
VERTEX
  8
1
  6
CONTINUOUS
 62
     2
 10
-59.05423500003823
 20
-19.568585
 30
0.0
  0
SEQEND
  8
1
  6
CONTINUOUS
 62
     2
  0
LINE
  8
1
  6
CONTINUOUS
 62
     2
 10
-92.05423500003823
 20
-19.568585
 30
0.0
 11
-60.05423500003823
 21
-19.568585
 31
0.0
  0
POLYLINE
  8
1
  6
CONTINUOUS
 62
     2
 66
     1
 10
0.0
 20
0.0
 30
0.0
  0
VERTEX
  8
1
  6
CONTINUOUS
 62
     2
 10
-93.05423500003823
 20
-25.987808
 30
0.0
  0
VERTEX
  8
1
  6
CONTINUOUS
 62
     2
 10
-93.05423500003823
 20
-19.068585
 30
0.0
  0
SEQEND
  8
1
  6
CONTINUOUS
 62
     2
  0
POLYLINE
  8
1
  6
CONTINUOUS
 62
     2
 66
     1
 10
0.0
 20
0.0
 30
0.0
  0
VERTEX
  8
1
  6
CONTINUOUS
 62
     2
 10
-59.05423500003823
 20
-25.987808
 30
0.0
  0
VERTEX
  8
1
  6
CONTINUOUS
 62
     2
 10
-59.05423500003823
 20
-19.068585
 30
0.0
  0
SEQEND
  8
1
  6
CONTINUOUS
 62
     2
  0
TEXT
  8
1
  6
CONTINUOUS
 62
     7
 10
-79.42923500003823
 20
-19.368585
 30
0.0
 40
3.0
  1
3
 41
0.5
  7
EXCESS_STANDARD
  0
TEXT
  8
1
  6
CONTINUOUS
 62
     7
 10
-77.92923500003823
 20
-19.368585
 30
0.0
 40
3.0
  1
4
 41
0.5
  7
EXCESS_STANDARD
  0
TEXT
  8
1
  6
CONTINUOUS
 62
     7
 10
-76.42923500003823
 20
-19.368585
 30
0.0
 40
3.0
  1
.
 41
0.5
  7
EXCESS_STANDARD
  0
TEXT
  8
1
  6
CONTINUOUS
 62
     7
 10
-75.67923500003823
 20
-19.368585
 30
0.0
 40
3.0
  1
0
 41
0.5
  7
EXCESS_STANDARD
  0
TEXT
  8
1
  6
CONTINUOUS
 62
     7
 10
-74.17923500003823
 20
-19.368585
 30
0.0
 40
3.0
  1
0
 41
0.5
  7
EXCESS_STANDARD
  0
POLYLINE
  8
1
  6
CONTINUOUS
 62
     2
 66
     1
 10
0.0
 20
0.0
 30
0.0
  0
VERTEX
  8
1
  6
CONTINUOUS
 62
     2
 10
-54.548813
 20
-29.787808
 30
0.0
  0
VERTEX
  8
1
  6
CONTINUOUS
 62
     2
 10
-55.048813
 20
-30.787808
 30
0.0
  0
VERTEX
  8
1
  6
CONTINUOUS
 62
     2
 10
-54.048813
 20
-30.787808
 30
0.0
  0
VERTEX
  8
1
  6
CONTINUOUS
 62
     2
 10
-54.548813
 20
-29.787808
 30
0.0
  0
SEQEND
  8
1
  6
CONTINUOUS
 62
     2
  0
LINE
  8
1
  6
CONTINUOUS
 62
     2
 10
-54.548813
 20
-30.787808
 30
0.0
 11
-54.548813
 21
-31.787808
 31
0.0
  0
POLYLINE
  8
1
  6
CONTINUOUS
 62
     2
 66
     1
 10
0.0
 20
0.0
 30
0.0
  0
VERTEX
  8
1
  6
CONTINUOUS
 62
     2
 10
-54.548813
 20
-26.287808
 30
0.0
  0
VERTEX
  8
1
  6
CONTINUOUS
 62
     2
 10
-54.048813
 20
-25.287808
 30
0.0
  0
VERTEX
  8
1
  6
CONTINUOUS
 62
     2
 10
-55.048813
 20
-25.287808
 30
0.0
  0
VERTEX
  8
1
  6
CONTINUOUS
 62
     2
 10
-54.548813
 20
-26.287808
 30
0.0
  0
SEQEND
  8
1
  6
CONTINUOUS
 62
     2
  0
LINE
  8
1
  6
CONTINUOUS
 62
     2
 10
-54.548813
 20
-25.287808
 30
0.0
 11
-54.548813
 21
-19.805048
 31
0.0
  0
LINE
  8
1
  6
CONTINUOUS
 62
     2
 10
-54.548813
 20
-29.787808
 30
0.0
 11
-54.548813
 21
-26.287808
 31
0.0
  0
POLYLINE
  8
1
  6
CONTINUOUS
 62
     2
 66
     1
 10
0.0
 20
0.0
 30
0.0
  0
VERTEX
  8
1
  6
CONTINUOUS
 62
     2
 10
-58.75423500003823
 20
-29.787808
 30
0.0
  0
VERTEX
  8
1
  6
CONTINUOUS
 62
     2
 10
-54.048813
 20
-29.787808
 30
0.0
  0
SEQEND
  8
1
  6
CONTINUOUS
 62
     2
  0
POLYLINE
  8
1
  6
CONTINUOUS
 62
     2
 66
     1
 10
0.0
 20
0.0
 30
0.0
  0
VERTEX
  8
1
  6
CONTINUOUS
 62
     2
 10
-58.75423500003823
 20
-26.287808
 30
0.0
  0
VERTEX
  8
1
  6
CONTINUOUS
 62
     2
 10
-54.048813
 20
-26.287808
 30
0.0
  0
SEQEND
  8
1
  6
CONTINUOUS
 62
     2
  0
TEXT
  8
1
  6
CONTINUOUS
 62
     7
 10
-54.748813
 20
-25.055048
 30
0.0
 40
3.0
  1
3
 50
90.0
 41
0.5
  7
EXCESS_STANDARD
  0
TEXT
  8
1
  6
CONTINUOUS
 62
     7
 10
-54.748813
 20
-23.555048
 30
0.0
 40
3.0
  1
.
 50
90.0
 41
0.5
  7
EXCESS_STANDARD
  0
TEXT
  8
1
  6
CONTINUOUS
 62
     7
 10
-54.748813
 20
-22.805048
 30
0.0
 40
3.0
  1
5
 50
90.0
 41
0.5
  7
EXCESS_STANDARD
  0
TEXT
  8
1
  6
CONTINUOUS
 62
     7
 10
-54.748813
 20
-21.305048
 30
0.0
 40
3.0
  1
0
 50
90.0
 41
0.5
  7
EXCESS_STANDARD
  0
POLYLINE
  8
1
  6
CONTINUOUS
 62
     2
 66
     1
 10
0.0
 20
0.0
 30
0.0
  0
VERTEX
  8
1
  6
CONTINUOUS
 62
     2
 10
-91.05423500003823
 20
-54.997742
 30
0.0
  0
VERTEX
  8
1
  6
CONTINUOUS
 62
     2
 10
-90.05423500003823
 20
-55.497742
 30
0.0
  0
VERTEX
  8
1
  6
CONTINUOUS
 62
     2
 10
-90.05423500003823
 20
-54.497742
 30
0.0
  0
VERTEX
  8
1
  6
CONTINUOUS
 62
     2
 10
-91.05423500003823
 20
-54.997742
 30
0.0
  0
SEQEND
  8
1
  6
CONTINUOUS
 62
     2
  0
LINE
  8
1
  6
CONTINUOUS
 62
     2
 10
-90.05423500003823
 20
-54.997742
 30
0.0
 11
-89.05423500003823
 21
-54.997742
 31
0.0
  0
POLYLINE
  8
1
  6
CONTINUOUS
 62
     2
 66
     1
 10
0.0
 20
0.0
 30
0.0
  0
VERTEX
  8
1
  6
CONTINUOUS
 62
     2
 10
-93.05423500003823
 20
-54.997742
 30
0.0
  0
VERTEX
  8
1
  6
CONTINUOUS
 62
     2
 10
-94.05423500003823
 20
-54.497742
 30
0.0
  0
VERTEX
  8
1
  6
CONTINUOUS
 62
     2
 10
-94.05423500003823
 20
-55.497742
 30
0.0
  0
VERTEX
  8
1
  6
CONTINUOUS
 62
     2
 10
-93.05423500003823
 20
-54.997742
 30
0.0
  0
SEQEND
  8
1
  6
CONTINUOUS
 62
     2
  0
LINE
  8
1
  6
CONTINUOUS
 62
     2
 10
-94.05423500003823
 20
-54.997742
 30
0.0
 11
-105.722434
 21
-54.997742
 31
0.0
  0
LINE
  8
1
  6
CONTINUOUS
 62
     2
 10
-91.05423500003823
 20
-54.997742
 30
0.0
 11
-93.05423500003823
 21
-54.997742
 31
0.0
  0
POLYLINE
  8
1
  6
CONTINUOUS
 62
     2
 66
     1
 10
0.0
 20
0.0
 30
0.0
  0
VERTEX
  8
1
  6
CONTINUOUS
 62
     2
 10
-91.05423500003823
 20
-47.587808
 30
0.0
  0
VERTEX
  8
1
  6
CONTINUOUS
 62
     2
 10
-91.05423500003823
 20
-55.497742
 30
0.0
  0
SEQEND
  8
1
  6
CONTINUOUS
 62
     2
  0
POLYLINE
  8
1
  6
CONTINUOUS
 62
     2
 66
     1
 10
0.0
 20
0.0
 30
0.0
  0
VERTEX
  8
1
  6
CONTINUOUS
 62
     2
 10
-93.05423500003823
 20
-47.587808
 30
0.0
  0
VERTEX
  8
1
  6
CONTINUOUS
 62
     2
 10
-93.05423500003823
 20
-55.497742
 30
0.0
  0
SEQEND
  8
1
  6
CONTINUOUS
 62
     2
  0
TEXT
  8
1
  6
CONTINUOUS
 62
     7
 10
-105.722434
 20
-54.79774199999999
 30
0.0
 40
3.0
  1
2
 41
0.5
  7
EXCESS_STANDARD
  0
TEXT
  8
1
  6
CONTINUOUS
 62
     7
 10
-104.222434
 20
-54.79774199999999
 30
0.0
 40
3.0
  1
.
 41
0.5
  7
EXCESS_STANDARD
  0
TEXT
  8
1
  6
CONTINUOUS
 62
     7
 10
-103.472434
 20
-54.79774199999999
 30
0.0
 40
3.0
  1
0
 41
0.5
  7
EXCESS_STANDARD
  0
TEXT
  8
1
  6
CONTINUOUS
 62
     7
 10
-101.972434
 20
-54.79774199999999
 30
0.0
 40
3.0
  1
0
 41
0.5
  7
EXCESS_STANDARD
  0
POLYLINE
  8
1
  6
CONTINUOUS
 62
     2
 66
     1
 10
0.0
 20
0.0
 30
0.0
  0
VERTEX
  8
1
  6
CONTINUOUS
 62
     2
 10
-93.05423500003823
 20
-60.612386
 30
0.0
  0
VERTEX
  8
1
  6
CONTINUOUS
 62
     2
 10
-92.05423500003823
 20
-61.112386
 30
0.0
  0
VERTEX
  8
1
  6
CONTINUOUS
 62
     2
 10
-92.05423500003823
 20
-60.112386
 30
0.0
  0
VERTEX
  8
1
  6
CONTINUOUS
 62
     2
 10
-93.05423500003823
 20
-60.612386
 30
0.0
  0
SEQEND
  8
1
  6
CONTINUOUS
 62
     2
  0
POLYLINE
  8
1
  6
CONTINUOUS
 62
     2
 66
     1
 10
0.0
 20
0.0
 30
0.0
  0
VERTEX
  8
1
  6
CONTINUOUS
 62
     2
 10
-76.55423500003823
 20
-60.612386
 30
0.0
  0
VERTEX
  8
1
  6
CONTINUOUS
 62
     2
 10
-77.55423500003823
 20
-60.112386
 30
0.0
  0
VERTEX
  8
1
  6
CONTINUOUS
 62
     2
 10
-77.55423500003823
 20
-61.112386
 30
0.0
  0
VERTEX
  8
1
  6
CONTINUOUS
 62
     2
 10
-76.55423500003823
 20
-60.612386
 30
0.0
  0
SEQEND
  8
1
  6
CONTINUOUS
 62
     2
  0
LINE
  8
1
  6
CONTINUOUS
 62
     2
 10
-92.05423500003823
 20
-60.612386
 30
0.0
 11
-77.55423500003823
 21
-60.612386
 31
0.0
  0
POLYLINE
  8
1
  6
CONTINUOUS
 62
     2
 66
     1
 10
0.0
 20
0.0
 30
0.0
  0
VERTEX
  8
1
  6
CONTINUOUS
 62
     2
 10
-93.05423500003823
 20
-47.587808
 30
0.0
  0
VERTEX
  8
1
  6
CONTINUOUS
 62
     2
 10
-93.05423500003823
 20
-61.112386
 30
0.0
  0
SEQEND
  8
1
  6
CONTINUOUS
 62
     2
  0
POLYLINE
  8
1
  6
CONTINUOUS
 62
     2
 66
     1
 10
0.0
 20
0.0
 30
0.0
  0
VERTEX
  8
1
  6
CONTINUOUS
 62
     2
 10
-76.55423500003823
 20
-34.587808
 30
0.0
  0
VERTEX
  8
1
  6
CONTINUOUS
 62
     2
 10
-76.55423500003823
 20
-61.112386
 30
0.0
  0
SEQEND
  8
1
  6
CONTINUOUS
 62
     2
  0
TEXT
  8
1
  6
CONTINUOUS
 62
     7
 10
-88.17923500003823
 20
-60.412386
 30
0.0
 40
3.0
  1
1
 41
0.5
  7
EXCESS_STANDARD
  0
TEXT
  8
1
  6
CONTINUOUS
 62
     7
 10
-86.67923500003823
 20
-60.412386
 30
0.0
 40
3.0
  1
6
 41
0.5
  7
EXCESS_STANDARD
  0
TEXT
  8
1
  6
CONTINUOUS
 62
     7
 10
-85.17923500003823
 20
-60.412386
 30
0.0
 40
3.0
  1
.
 41
0.5
  7
EXCESS_STANDARD
  0
TEXT
  8
1
  6
CONTINUOUS
 62
     7
 10
-84.42923500003823
 20
-60.412386
 30
0.0
 40
3.0
  1
5
 41
0.5
  7
EXCESS_STANDARD
  0
TEXT
  8
1
  6
CONTINUOUS
 62
     7
 10
-82.92923500003823
 20
-60.412386
 30
0.0
 40
3.0
  1
0
 41
0.5
  7
EXCESS_STANDARD
  0
POLYLINE
  8
1
  6
CONTINUOUS
 62
     2
 66
     1
 10
0.0
 20
0.0
 30
0.0
  0
VERTEX
  8
1
  6
CONTINUOUS
 62
     2
 10
-22.00575899999998
 20
-34.287808
 30
0.0
  0
VERTEX
  8
1
  6
CONTINUOUS
 62
     2
 10
-21.50575899999998
 20
-33.287808
 30
0.0
  0
VERTEX
  8
1
  6
CONTINUOUS
 62
     2
 10
-22.50575899999998
 20
-33.287808
 30
0.0
  0
VERTEX
  8
1
  6
CONTINUOUS
 62
     2
 10
-22.00575899999998
 20
-34.287808
 30
0.0
  0
SEQEND
  8
1
  6
CONTINUOUS
 62
     2
  0
POLYLINE
  8
1
  6
CONTINUOUS
 62
     2
 66
     1
 10
0.0
 20
0.0
 30
0.0
  0
VERTEX
  8
1
  6
CONTINUOUS
 62
     2
 10
-22.00575899999998
 20
-26.287808
 30
0.0
  0
VERTEX
  8
1
  6
CONTINUOUS
 62
     2
 10
-22.50575899999998
 20
-27.287808
 30
0.0
  0
VERTEX
  8
1
  6
CONTINUOUS
 62
     2
 10
-21.50575899999998
 20
-27.287808
 30
0.0
  0
VERTEX
  8
1
  6
CONTINUOUS
 62
     2
 10
-22.00575899999998
 20
-26.287808
 30
0.0
  0
SEQEND
  8
1
  6
CONTINUOUS
 62
     2
  0
LINE
  8
1
  6
CONTINUOUS
 62
     2
 10
-22.00575899999998
 20
-33.287808
 30
0.0
 11
-22.00575899999998
 21
-27.287808
 31
0.0
  0
TEXT
  8
1
  6
CONTINUOUS
 62
     7
 10
-22.20575899999998
 20
-32.912808
 30
0.0
 40
3.0
  1
8
 50
90.0
 41
0.5
  7
EXCESS_STANDARD
  0
TEXT
  8
1
  6
CONTINUOUS
 62
     7
 10
-22.20575899999998
 20
-31.412808
 30
0.0
 40
3.0
  1
.
 50
90.0
 41
0.5
  7
EXCESS_STANDARD
  0
TEXT
  8
1
  6
CONTINUOUS
 62
     7
 10
-22.20575899999998
 20
-30.662808
 30
0.0
 40
3.0
  1
0
 50
90.0
 41
0.5
  7
EXCESS_STANDARD
  0
TEXT
  8
1
  6
CONTINUOUS
 62
     7
 10
-22.20575899999998
 20
-29.162808
 30
0.0
 40
3.0
  1
0
 50
90.0
 41
0.5
  7
EXCESS_STANDARD
  0
POLYLINE
  8
1
  6
CONTINUOUS
 62
     2
 66
     1
 10
0.0
 20
0.0
 30
0.0
  0
VERTEX
  8
1
  6
CONTINUOUS
 62
     2
 10
-87.43728299999998
 20
-34.287808
 30
0.0
  0
VERTEX
  8
1
  6
CONTINUOUS
 62
     2
 10
-86.93728299999998
 20
-33.287808
 30
0.0
  0
VERTEX
  8
1
  6
CONTINUOUS
 62
     2
 10
-87.93728299999998
 20
-33.287808
 30
0.0
  0
VERTEX
  8
1
  6
CONTINUOUS
 62
     2
 10
-87.43728299999998
 20
-34.287808
 30
0.0
  0
SEQEND
  8
1
  6
CONTINUOUS
 62
     2
  0
POLYLINE
  8
1
  6
CONTINUOUS
 62
     2
 66
     1
 10
0.0
 20
0.0
 30
0.0
  0
VERTEX
  8
1
  6
CONTINUOUS
 62
     2
 10
-87.43728299999998
 20
-26.287808
 30
0.0
  0
VERTEX
  8
1
  6
CONTINUOUS
 62
     2
 10
-87.93728299999998
 20
-27.287808
 30
0.0
  0
VERTEX
  8
1
  6
CONTINUOUS
 62
     2
 10
-86.93728299999998
 20
-27.287808
 30
0.0
  0
VERTEX
  8
1
  6
CONTINUOUS
 62
     2
 10
-87.43728299999998
 20
-26.287808
 30
0.0
  0
SEQEND
  8
1
  6
CONTINUOUS
 62
     2
  0
LINE
  8
1
  6
CONTINUOUS
 62
     2
 10
-87.43728299999998
 20
-33.287808
 30
0.0
 11
-87.43728299999998
 21
-27.287808
 31
0.0
  0
TEXT
  8
1
  6
CONTINUOUS
 62
     7
 10
-87.63728299999998
 20
-32.912808
 30
0.0
 40
3.0
  1
8
 50
90.0
 41
0.5
  7
EXCESS_STANDARD
  0
TEXT
  8
1
  6
CONTINUOUS
 62
     7
 10
-87.63728299999998
 20
-31.412808
 30
0.0
 40
3.0
  1
.
 50
90.0
 41
0.5
  7
EXCESS_STANDARD
  0
TEXT
  8
1
  6
CONTINUOUS
 62
     7
 10
-87.63728299999998
 20
-30.662808
 30
0.0
 40
3.0
  1
0
 50
90.0
 41
0.5
  7
EXCESS_STANDARD
  0
TEXT
  8
1
  6
CONTINUOUS
 62
     7
 10
-87.63728299999998
 20
-29.162808
 30
0.0
 40
3.0
  1
0
 50
90.0
 41
0.5
  7
EXCESS_STANDARD
  0
POLYLINE
  8
1
  6
CONTINUOUS
 62
     2
 66
     1
 10
0.0
 20
0.0
 30
0.0
  0
VERTEX
  8
1
  6
CONTINUOUS
 62
     2
 10
-6.926440226399549
 20
-28.06017480361942
 30
0.0
  0
VERTEX
  8
1
  6
CONTINUOUS
 62
     2
 10
-5.839939152041401
 20
-27.79651704170335
 30
0.0
  0
VERTEX
  8
1
  6
CONTINUOUS
 62
     2
 10
-6.485465791317518
 20
-27.03277928698326
 30
0.0
  0
VERTEX
  8
1
  6
CONTINUOUS
 62
     2
 10
-6.926440226399549
 20
-28.06017480361942
 30
0.0
  0
SEQEND
  8
1
  6
CONTINUOUS
 62
     2
  0
LINE
  8
1
  6
CONTINUOUS
 62
     2
 10
-6.162702471679459
 20
-27.4146481643433
 30
0.0
 11
2.569826000000004
 21
-20.033738
 31
0.0
  0
POLYLINE
  8
1
  6
CONTINUOUS
 62
     2
 66
     1
 10
0.0
 20
0.0
 30
0.0
  0
VERTEX
  8
1
  6
CONTINUOUS
 62
     2
 10
2.569826000000004
 20
-20.033738
 30
0.0
  0
VERTEX
  8
1
  6
CONTINUOUS
 62
     2
 10
9.819826000000004
 20
-20.033738
 30
0.0
  0
SEQEND
  8
1
  6
CONTINUOUS
 62
     2
  0
TEXT
  8
1
  6
CONTINUOUS
 62
     7
 10
4.569826000000004
 20
-19.833738
 30
0.0
 40
3.0
  1
5
 41
0.5
  7
EXCESS_STANDARD
  0
TEXT
  8
1
  6
CONTINUOUS
 62
     7
 10
6.069826000000004
 20
-19.833738
 30
0.0
 40
3.0
  1
.
 41
0.5
  7
EXCESS_STANDARD
  0
TEXT
  8
1
  6
CONTINUOUS
 62
     7
 10
6.819826000000004
 20
-19.833738
 30
0.0
 40
3.0
  1
0
 41
0.5
  7
EXCESS_STANDARD
  0
TEXT
  8
1
  6
CONTINUOUS
 62
     7
 10
8.319826000000004
 20
-19.833738
 30
0.0
 40
3.0
  1
0
 41
0.5
  7
EXCESS_STANDARD
  0
TEXT
  8
1
  6
CONTINUOUS
 62
     7
 10
3.069826000000004
 20
-19.833738
 30
0.0
 40
3.0
  1
R
 41
0.5
  7
EXCESS_STANDARD
  0
POLYLINE
  8
1
  6
CONTINUOUS
 62
     2
 66
     1
 10
0.0
 20
0.0
 30
0.0
  0
VERTEX
  8
1
  6
CONTINUOUS
 62
     2
 10
-91.90706273156601
 20
-28.10100419819944
 30
0.0
  0
VERTEX
  8
1
  6
CONTINUOUS
 62
     2
 10
-92.35894789769152
 20
-27.07836066468656
 30
0.0
  0
VERTEX
  8
1
  6
CONTINUOUS
 62
     2
 10
-92.99630865805163
 20
-27.84892621099211
 30
0.0
  0
VERTEX
  8
1
  6
CONTINUOUS
 62
     2
 10
-91.90706273156601
 20
-28.10100419819944
 30
0.0
  0
SEQEND
  8
1
  6
CONTINUOUS
 62
     2
  0
LINE
  8
1
  6
CONTINUOUS
 62
     2
 10
-92.67762827787158
 20
-27.46364343783933
 30
0.0
 11
-101.004246
 21
-20.576417
 31
0.0
  0
POLYLINE
  8
1
  6
CONTINUOUS
 62
     2
 66
     1
 10
0.0
 20
0.0
 30
0.0
  0
VERTEX
  8
1
  6
CONTINUOUS
 62
     2
 10
-101.004246
 20
-20.576417
 30
0.0
  0
VERTEX
  8
1
  6
CONTINUOUS
 62
     2
 10
-108.254246
 20
-20.576417
 30
0.0
  0
SEQEND
  8
1
  6
CONTINUOUS
 62
     2
  0
TEXT
  8
1
  6
CONTINUOUS
 62
     7
 10
-106.754246
 20
-20.376417
 30
0.0
 40
3.0
  1
5
 41
0.5
  7
EXCESS_STANDARD
  0
TEXT
  8
1
  6
CONTINUOUS
 62
     7
 10
-105.254246
 20
-20.376417
 30
0.0
 40
3.0
  1
.
 41
0.5
  7
EXCESS_STANDARD
  0
TEXT
  8
1
  6
CONTINUOUS
 62
     7
 10
-104.504246
 20
-20.376417
 30
0.0
 40
3.0
  1
0
 41
0.5
  7
EXCESS_STANDARD
  0
TEXT
  8
1
  6
CONTINUOUS
 62
     7
 10
-103.004246
 20
-20.376417
 30
0.0
 40
3.0
  1
0
 41
0.5
  7
EXCESS_STANDARD
  0
TEXT
  8
1
  6
CONTINUOUS
 62
     7
 10
-108.254246
 20
-20.376417
 30
0.0
 40
3.0
  1
R
 41
0.5
  7
EXCESS_STANDARD
  0
POLYLINE
  8
1
  6
CONTINUOUS
 62
     2
 66
     1
 10
0.0
 20
0.0
 30
0.0
  0
VERTEX
  8
1
  6
CONTINUOUS
 62
     2
 10
-59.05423500003823
 20
2.836286
 30
0.0
  0
VERTEX
  8
1
  6
CONTINUOUS
 62
     2
 10
-58.05423500003823
 20
2.336285999999999
 30
0.0
  0
VERTEX
  8
1
  6
CONTINUOUS
 62
     2
 10
-58.05423500003823
 20
3.336285999999999
 30
0.0
  0
VERTEX
  8
1
  6
CONTINUOUS
 62
     2
 10
-59.05423500003823
 20
2.836286
 30
0.0
  0
SEQEND
  8
1
  6
CONTINUOUS
 62
     2
  0
LINE
  8
1
  6
CONTINUOUS
 62
     2
 10
-58.05423500003823
 20
2.836285999999999
 30
0.0
 11
-57.05423500003823
 21
2.836285999999999
 31
0.0
  0
POLYLINE
  8
1
  6
CONTINUOUS
 62
     2
 66
     1
 10
0.0
 20
0.0
 30
0.0
  0
VERTEX
  8
1
  6
CONTINUOUS
 62
     2
 10
-63.55423500003823
 20
2.836286
 30
0.0
  0
VERTEX
  8
1
  6
CONTINUOUS
 62
     2
 10
-64.55423500003823
 20
3.336286
 30
0.0
  0
VERTEX
  8
1
  6
CONTINUOUS
 62
     2
 10
-64.55423500003823
 20
2.336286
 30
0.0
  0
VERTEX
  8
1
  6
CONTINUOUS
 62
     2
 10
-63.55423500003823
 20
2.836286
 30
0.0
  0
SEQEND
  8
1
  6
CONTINUOUS
 62
     2
  0
LINE
  8
1
  6
CONTINUOUS
 62
     2
 10
-64.55423500003823
 20
2.836286
 30
0.0
 11
-65.55423500003823
 21
2.836286000000001
 31
0.0
  0
LINE
  8
1
  6
CONTINUOUS
 62
     2
 10
-59.05423500003823
 20
2.836286
 30
0.0
 11
-63.55423500003823
 21
2.836286
 31
0.0
  0
POLYLINE
  8
1
  6
CONTINUOUS
 62
     2
 66
     1
 10
0.0
 20
0.0
 30
0.0
  0
VERTEX
  8
1
  6
CONTINUOUS
 62
     2
 10
-59.05423500003823
 20
-0.3147490002976639
 30
0.0
  0
VERTEX
  8
1
  6
CONTINUOUS
 62
     2
 10
-59.05423500003823
 20
3.336286
 30
0.0
  0
SEQEND
  8
1
  6
CONTINUOUS
 62
     2
  0
POLYLINE
  8
1
  6
CONTINUOUS
 62
     2
 66
     1
 10
0.0
 20
0.0
 30
0.0
  0
VERTEX
  8
1
  6
CONTINUOUS
 62
     2
 10
-63.55423500003823
 20
-5.314749000297664
 30
0.0
  0
VERTEX
  8
1
  6
CONTINUOUS
 62
     2
 10
-63.55423500003823
 20
3.336286
 30
0.0
  0
SEQEND
  8
1
  6
CONTINUOUS
 62
     2
  0
TEXT
  8
1
  6
CONTINUOUS
 62
     7
 10
-63.92923500003823
 20
3.036286
 30
0.0
 40
3.0
  1
4
 41
0.5
  7
EXCESS_STANDARD
  0
TEXT
  8
1
  6
CONTINUOUS
 62
     7
 10
-62.42923500003823
 20
3.036286
 30
0.0
 40
3.0
  1
.
 41
0.5
  7
EXCESS_STANDARD
  0
TEXT
  8
1
  6
CONTINUOUS
 62
     7
 10
-61.67923500003823
 20
3.036286
 30
0.0
 40
3.0
  1
5
 41
0.5
  7
EXCESS_STANDARD
  0
TEXT
  8
1
  6
CONTINUOUS
 62
     7
 10
-60.17923500003823
 20
3.036286
 30
0.0
 40
3.0
  1
0
 41
0.5
  7
EXCESS_STANDARD
  0
POLYLINE
  8
1
  6
CONTINUOUS
 62
     2
 66
     1
 10
0.0
 20
0.0
 30
0.0
  0
VERTEX
  8
1
  6
CONTINUOUS
 62
     2
 10
-63.55423500003823
 20
-15.69231
 30
0.0
  0
VERTEX
  8
1
  6
CONTINUOUS
 62
     2
 10
-62.55423500003823
 20
-16.19231
 30
0.0
  0
VERTEX
  8
1
  6
CONTINUOUS
 62
     2
 10
-62.55423500003823
 20
-15.19231
 30
0.0
  0
VERTEX
  8
1
  6
CONTINUOUS
 62
     2
 10
-63.55423500003823
 20
-15.69231
 30
0.0
  0
SEQEND
  8
1
  6
CONTINUOUS
 62
     2
  0
LINE
  8
1
  6
CONTINUOUS
 62
     2
 10
-62.55423500003823
 20
-15.69231
 30
0.0
 11
-51.78641899999999
 21
-15.69231
 31
0.0
  0
POLYLINE
  8
1
  6
CONTINUOUS
 62
     2
 66
     1
 10
0.0
 20
0.0
 30
0.0
  0
VERTEX
  8
1
  6
CONTINUOUS
 62
     2
 10
-66.55423500003823
 20
-15.69231
 30
0.0
  0
VERTEX
  8
1
  6
CONTINUOUS
 62
     2
 10
-67.55423500003823
 20
-15.19231
 30
0.0
  0
VERTEX
  8
1
  6
CONTINUOUS
 62
     2
 10
-67.55423500003823
 20
-16.19231
 30
0.0
  0
VERTEX
  8
1
  6
CONTINUOUS
 62
     2
 10
-66.55423500003823
 20
-15.69231
 30
0.0
  0
SEQEND
  8
1
  6
CONTINUOUS
 62
     2
  0
LINE
  8
1
  6
CONTINUOUS
 62
     2
 10
-67.55423500003823
 20
-15.69231
 30
0.0
 11
-68.55423500003823
 21
-15.69231
 31
0.0
  0
LINE
  8
1
  6
CONTINUOUS
 62
     2
 10
-63.55423500003823
 20
-15.69231
 30
0.0
 11
-66.55423500003823
 21
-15.69231
 31
0.0
  0
POLYLINE
  8
1
  6
CONTINUOUS
 62
     2
 66
     1
 10
0.0
 20
0.0
 30
0.0
  0
VERTEX
  8
1
  6
CONTINUOUS
 62
     2
 10
-63.55423500003823
 20
-5.914749000297664
 30
0.0
  0
VERTEX
  8
1
  6
CONTINUOUS
 62
     2
 10
-63.55423500003823
 20
-16.19231
 30
0.0
  0
SEQEND
  8
1
  6
CONTINUOUS
 62
     2
  0
POLYLINE
  8
1
  6
CONTINUOUS
 62
     2
 66
     1
 10
0.0
 20
0.0
 30
0.0
  0
VERTEX
  8
1
  6
CONTINUOUS
 62
     2
 10
-66.55423500003823
 20
-5.914749002876877
 30
0.0
  0
VERTEX
  8
1
  6
CONTINUOUS
 62
     2
 10
-66.55423500003823
 20
-16.19231
 30
0.0
  0
SEQEND
  8
1
  6
CONTINUOUS
 62
     2
  0
TEXT
  8
1
  6
CONTINUOUS
 62
     7
 10
-57.03641899999999
 20
-15.49231
 30
0.0
 40
3.0
  1
3
 41
0.5
  7
EXCESS_STANDARD
  0
TEXT
  8
1
  6
CONTINUOUS
 62
     7
 10
-55.53641899999999
 20
-15.49231
 30
0.0
 40
3.0
  1
.
 41
0.5
  7
EXCESS_STANDARD
  0
TEXT
  8
1
  6
CONTINUOUS
 62
     7
 10
-54.78641899999999
 20
-15.49231
 30
0.0
 40
3.0
  1
0
 41
0.5
  7
EXCESS_STANDARD
  0
TEXT
  8
1
  6
CONTINUOUS
 62
     7
 10
-53.28641899999999
 20
-15.49231
 30
0.0
 40
3.0
  1
0
 41
0.5
  7
EXCESS_STANDARD
  0
POLYLINE
  8
1
  6
CONTINUOUS
 62
     2
 66
     1
 10
0.0
 20
0.0
 30
0.0
  0
VERTEX
  8
1
  6
CONTINUOUS
 62
     2
 10
-56.65965799999999
 20
-10.61474900029766
 30
0.0
  0
VERTEX
  8
1
  6
CONTINUOUS
 62
     2
 10
-57.15965799999999
 20
-11.61474900029766
 30
0.0
  0
VERTEX
  8
1
  6
CONTINUOUS
 62
     2
 10
-56.15965799999999
 20
-11.61474900029766
 30
0.0
  0
VERTEX
  8
1
  6
CONTINUOUS
 62
     2
 10
-56.65965799999999
 20
-10.61474900029766
 30
0.0
  0
SEQEND
  8
1
  6
CONTINUOUS
 62
     2
  0
LINE
  8
1
  6
CONTINUOUS
 62
     2
 10
-56.65965799999999
 20
-11.61474900029766
 30
0.0
 11
-56.65965799999999
 21
-12.61474900029766
 31
0.0
  0
POLYLINE
  8
1
  6
CONTINUOUS
 62
     2
 66
     1
 10
0.0
 20
0.0
 30
0.0
  0
VERTEX
  8
1
  6
CONTINUOUS
 62
     2
 10
-56.65965799999999
 20
-5.614749000297666
 30
0.0
  0
VERTEX
  8
1
  6
CONTINUOUS
 62
     2
 10
-56.15965799999999
 20
-4.614749000297666
 30
0.0
  0
VERTEX
  8
1
  6
CONTINUOUS
 62
     2
 10
-57.15965799999999
 20
-4.614749000297666
 30
0.0
  0
VERTEX
  8
1
  6
CONTINUOUS
 62
     2
 10
-56.65965799999999
 20
-5.614749000297666
 30
0.0
  0
SEQEND
  8
1
  6
CONTINUOUS
 62
     2
  0
LINE
  8
1
  6
CONTINUOUS
 62
     2
 10
-56.65965799999999
 20
-4.614749000297666
 30
0.0
 11
-56.65965799999999
 21
-3.614749000297666
 31
0.0
  0
LINE
  8
1
  6
CONTINUOUS
 62
     2
 10
-56.65965799999999
 20
-10.61474900029766
 30
0.0
 11
-56.65965799999999
 21
-5.614749000297666
 31
0.0
  0
POLYLINE
  8
1
  6
CONTINUOUS
 62
     2
 66
     1
 10
0.0
 20
0.0
 30
0.0
  0
VERTEX
  8
1
  6
CONTINUOUS
 62
     2
 10
-58.75423500003823
 20
-10.61474900029766
 30
0.0
  0
VERTEX
  8
1
  6
CONTINUOUS
 62
     2
 10
-56.15965799999999
 20
-10.61474900029766
 30
0.0
  0
SEQEND
  8
1
  6
CONTINUOUS
 62
     2
  0
POLYLINE
  8
1
  6
CONTINUOUS
 62
     2
 66
     1
 10
0.0
 20
0.0
 30
0.0
  0
VERTEX
  8
1
  6
CONTINUOUS
 62
     2
 10
-63.25423500003823
 20
-5.614749000297664
 30
0.0
  0
VERTEX
  8
1
  6
CONTINUOUS
 62
     2
 10
-56.15965799999999
 20
-5.614749000297666
 30
0.0
  0
SEQEND
  8
1
  6
CONTINUOUS
 62
     2
  0
TEXT
  8
1
  6
CONTINUOUS
 62
     7
 10
-56.859658
 20
-10.73974900029766
 30
0.0
 40
3.0
  1
5
 50
90.0
 41
0.5
  7
EXCESS_STANDARD
  0
TEXT
  8
1
  6
CONTINUOUS
 62
     7
 10
-56.859658
 20
-9.239749000297664
 30
0.0
 40
3.0
  1
.
 50
90.0
 41
0.5
  7
EXCESS_STANDARD
  0
TEXT
  8
1
  6
CONTINUOUS
 62
     7
 10
-56.859658
 20
-8.489749000297664
 30
0.0
 40
3.0
  1
0
 50
90.0
 41
0.5
  7
EXCESS_STANDARD
  0
TEXT
  8
1
  6
CONTINUOUS
 62
     7
 10
-56.859658
 20
-6.989749000297664
 30
0.0
 40
3.0
  1
0
 50
90.0
 41
0.5
  7
EXCESS_STANDARD
  0
POLYLINE
  8
1
  6
CONTINUOUS
 62
     2
 66
     1
 10
0.0
 20
0.0
 30
0.0
  0
VERTEX
  8
1
  6
CONTINUOUS
 62
     2
 10
-67.99605183504698
 20
-3.572406178009966
 30
0.0
  0
VERTEX
  8
1
  6
CONTINUOUS
 62
     2
 10
-68.16431000407711
 20
-2.467105681061452
 30
0.0
  0
VERTEX
  8
1
  6
CONTINUOUS
 62
     2
 10
-68.98124713402386
 20
-3.043832415064951
 30
0.0
  0
VERTEX
  8
1
  6
CONTINUOUS
 62
     2
 10
-67.99605183504698
 20
-3.572406178009966
 30
0.0
  0
SEQEND
  8
1
  6
CONTINUOUS
 62
     2
  0
LINE
  8
1
  6
CONTINUOUS
 62
     2
 10
-68.57277856905048
 20
-2.755469048063202
 30
0.0
 11
-73.56021799999999
 21
4.309270999999992
 31
0.0
  0
POLYLINE
  8
1
  6
CONTINUOUS
 62
     2
 66
     1
 10
0.0
 20
0.0
 30
0.0
  0
VERTEX
  8
1
  6
CONTINUOUS
 62
     2
 10
-73.56021799999999
 20
4.309270999999992
 30
0.0
  0
VERTEX
  8
1
  6
CONTINUOUS
 62
     2
 10
-80.81021799999999
 20
4.309270999999993
 30
0.0
  0
SEQEND
  8
1
  6
CONTINUOUS
 62
     2
  0
TEXT
  8
1
  6
CONTINUOUS
 62
     7
 10
-79.31021799999999
 20
4.509270999999992
 30
0.0
 40
3.0
  1
2
 41
0.5
  7
EXCESS_STANDARD
  0
TEXT
  8
1
  6
CONTINUOUS
 62
     7
 10
-77.81021799999999
 20
4.509270999999992
 30
0.0
 40
3.0
  1
.
 41
0.5
  7
EXCESS_STANDARD
  0
TEXT
  8
1
  6
CONTINUOUS
 62
     7
 10
-77.06021799999999
 20
4.509270999999992
 30
0.0
 40
3.0
  1
5
 41
0.5
  7
EXCESS_STANDARD
  0
TEXT
  8
1
  6
CONTINUOUS
 62
     7
 10
-75.56021799999999
 20
4.509270999999992
 30
0.0
 40
3.0
  1
0
 41
0.5
  7
EXCESS_STANDARD
  0
TEXT
  8
1
  6
CONTINUOUS
 62
     7
 10
-80.81021799999999
 20
4.509270999999992
 30
0.0
 40
3.0
  1
R
 41
0.5
  7
EXCESS_STANDARD
  0
POLYLINE
  8
1
  6
CONTINUOUS
 62
     2
 66
     1
 10
0.0
 20
0.0
 30
0.0
  0
VERTEX
  8
1
  6
CONTINUOUS
 62
     2
 10
-12.514377
 20
-34.287808
 30
0.0
  0
VERTEX
  8
1
  6
CONTINUOUS
 62
     2
 10
-13.014377
 20
-35.287808
 30
0.0
  0
VERTEX
  8
1
  6
CONTINUOUS
 62
     2
 10
-12.014377
 20
-35.287808
 30
0.0
  0
VERTEX
  8
1
  6
CONTINUOUS
 62
     2
 10
-12.514377
 20
-34.287808
 30
0.0
  0
SEQEND
  8
1
  6
CONTINUOUS
 62
     2
  0
POLYLINE
  8
1
  6
CONTINUOUS
 62
     2
 66
     1
 10
0.0
 20
0.0
 30
0.0
  0
VERTEX
  8
1
  6
CONTINUOUS
 62
     2
 10
-12.514377
 20
-47.287808
 30
0.0
  0
VERTEX
  8
1
  6
CONTINUOUS
 62
     2
 10
-12.014377
 20
-46.287808
 30
0.0
  0
VERTEX
  8
1
  6
CONTINUOUS
 62
     2
 10
-13.014377
 20
-46.287808
 30
0.0
  0
VERTEX
  8
1
  6
CONTINUOUS
 62
     2
 10
-12.514377
 20
-47.287808
 30
0.0
  0
SEQEND
  8
1
  6
CONTINUOUS
 62
     2
  0
LINE
  8
1
  6
CONTINUOUS
 62
     2
 10
-12.514377
 20
-35.287808
 30
0.0
 11
-12.514377
 21
-46.287808
 31
0.0
  0
POLYLINE
  8
1
  6
CONTINUOUS
 62
     2
 66
     1
 10
0.0
 20
0.0
 30
0.0
  0
VERTEX
  8
1
  6
CONTINUOUS
 62
     2
 10
-8.045128999999992
 20
-34.287808
 30
0.0
  0
VERTEX
  8
1
  6
CONTINUOUS
 62
     2
 10
-13.014377
 20
-34.287808
 30
0.0
  0
SEQEND
  8
1
  6
CONTINUOUS
 62
     2
  0
POLYLINE
  8
1
  6
CONTINUOUS
 62
     2
 66
     1
 10
0.0
 20
0.0
 30
0.0
  0
VERTEX
  8
1
  6
CONTINUOUS
 62
     2
 10
-8.045128999999992
 20
-47.287808
 30
0.0
  0
VERTEX
  8
1
  6
CONTINUOUS
 62
     2
 10
-13.014377
 20
-47.287808
 30
0.0
  0
SEQEND
  8
1
  6
CONTINUOUS
 62
     2
  0
TEXT
  8
1
  6
CONTINUOUS
 62
     7
 10
-12.714377
 20
-44.162808
 30
0.0
 40
3.0
  1
1
 50
90.0
 41
0.5
  7
EXCESS_STANDARD
  0
TEXT
  8
1
  6
CONTINUOUS
 62
     7
 10
-12.714377
 20
-42.662808
 30
0.0
 40
3.0
  1
3
 50
90.0
 41
0.5
  7
EXCESS_STANDARD
  0
TEXT
  8
1
  6
CONTINUOUS
 62
     7
 10
-12.714377
 20
-41.162808
 30
0.0
 40
3.0
  1
.
 50
90.0
 41
0.5
  7
EXCESS_STANDARD
  0
TEXT
  8
1
  6
CONTINUOUS
 62
     7
 10
-12.714377
 20
-40.412808
 30
0.0
 40
3.0
  1
0
 50
90.0
 41
0.5
  7
EXCESS_STANDARD
  0
TEXT
  8
1
  6
CONTINUOUS
 62
     7
 10
-12.714377
 20
-38.912808
 30
0.0
 40
3.0
  1
0
 50
90.0
 41
0.5
  7
EXCESS_STANDARD
  0
POLYLINE
  8
1
  6
CONTINUOUS
 62
     2
 66
     1
 10
0.0
 20
0.0
 30
0.0
  0
VERTEX
  8
1
  6
CONTINUOUS
 62
     2
 10
-7.745128999999995
 20
-51.354043
 30
0.0
  0
VERTEX
  8
1
  6
CONTINUOUS
 62
     2
 10
-8.745128999999995
 20
-50.854043
 30
0.0
  0
VERTEX
  8
1
  6
CONTINUOUS
 62
     2
 10
-8.745128999999995
 20
-51.854043
 30
0.0
  0
VERTEX
  8
1
  6
CONTINUOUS
 62
     2
 10
-7.745128999999995
 20
-51.354043
 30
0.0
  0
SEQEND
  8
1
  6
CONTINUOUS
 62
     2
  0
POLYLINE
  8
1
  6
CONTINUOUS
 62
     2
 66
     1
 10
0.0
 20
0.0
 30
0.0
  0
VERTEX
  8
1
  6
CONTINUOUS
 62
     2
 10
-43.74512899999999
 20
-51.35404299999999
 30
0.0
  0
VERTEX
  8
1
  6
CONTINUOUS
 62
     2
 10
-42.74512899999999
 20
-51.85404299999999
 30
0.0
  0
VERTEX
  8
1
  6
CONTINUOUS
 62
     2
 10
-42.74512899999999
 20
-50.85404299999999
 30
0.0
  0
VERTEX
  8
1
  6
CONTINUOUS
 62
     2
 10
-43.74512899999999
 20
-51.35404299999999
 30
0.0
  0
SEQEND
  8
1
  6
CONTINUOUS
 62
     2
  0
LINE
  8
1
  6
CONTINUOUS
 62
     2
 10
-8.745128999999995
 20
-51.354043
 30
0.0
 11
-42.74512899999999
 21
-51.35404299999999
 31
0.0
  0
POLYLINE
  8
1
  6
CONTINUOUS
 62
     2
 66
     1
 10
0.0
 20
0.0
 30
0.0
  0
VERTEX
  8
1
  6
CONTINUOUS
 62
     2
 10
-7.745128999999991
 20
-34.587808
 30
0.0
  0
VERTEX
  8
1
  6
CONTINUOUS
 62
     2
 10
-7.745128999999995
 20
-51.854043
 30
0.0
  0
SEQEND
  8
1
  6
CONTINUOUS
 62
     2
  0
POLYLINE
  8
1
  6
CONTINUOUS
 62
     2
 66
     1
 10
0.0
 20
0.0
 30
0.0
  0
VERTEX
  8
1
  6
CONTINUOUS
 62
     2
 10
-43.74512899999999
 20
-34.587808
 30
0.0
  0
VERTEX
  8
1
  6
CONTINUOUS
 62
     2
 10
-43.74512899999999
 20
-51.85404299999999
 30
0.0
  0
SEQEND
  8
1
  6
CONTINUOUS
 62
     2
  0
TEXT
  8
1
  6
CONTINUOUS
 62
     7
 10
-29.120129
 20
-51.15404299999999
 30
0.0
 40
3.0
  1
3
 41
0.5
  7
EXCESS_STANDARD
  0
TEXT
  8
1
  6
CONTINUOUS
 62
     7
 10
-27.620129
 20
-51.15404299999999
 30
0.0
 40
3.0
  1
6
 41
0.5
  7
EXCESS_STANDARD
  0
TEXT
  8
1
  6
CONTINUOUS
 62
     7
 10
-26.120129
 20
-51.15404299999999
 30
0.0
 40
3.0
  1
.
 41
0.5
  7
EXCESS_STANDARD
  0
TEXT
  8
1
  6
CONTINUOUS
 62
     7
 10
-25.370129
 20
-51.15404299999999
 30
0.0
 40
3.0
  1
0
 41
0.5
  7
EXCESS_STANDARD
  0
TEXT
  8
1
  6
CONTINUOUS
 62
     7
 10
-23.870129
 20
-51.15404299999999
 30
0.0
 40
3.0
  1
0
 41
0.5
  7
EXCESS_STANDARD
  0
POLYLINE
  8
1
  6
CONTINUOUS
 62
     2
 66
     1
 10
0.0
 20
0.0
 30
0.0
  0
VERTEX
  8
1
  6
CONTINUOUS
 62
     2
 10
-43.74512899999999
 20
-28.677202
 30
0.0
  0
VERTEX
  8
1
  6
CONTINUOUS
 62
     2
 10
-42.74512899999999
 20
-29.177202
 30
0.0
  0
VERTEX
  8
1
  6
CONTINUOUS
 62
     2
 10
-42.74512899999999
 20
-28.177202
 30
0.0
  0
VERTEX
  8
1
  6
CONTINUOUS
 62
     2
 10
-43.74512899999999
 20
-28.677202
 30
0.0
  0
SEQEND
  8
1
  6
CONTINUOUS
 62
     2
  0
POLYLINE
  8
1
  6
CONTINUOUS
 62
     2
 66
     1
 10
0.0
 20
0.0
 30
0.0
  0
VERTEX
  8
1
  6
CONTINUOUS
 62
     2
 10
-26.24512899999999
 20
-28.677202
 30
0.0
  0
VERTEX
  8
1
  6
CONTINUOUS
 62
     2
 10
-27.24512899999999
 20
-28.177202
 30
0.0
  0
VERTEX
  8
1
  6
CONTINUOUS
 62
     2
 10
-27.24512899999999
 20
-29.177202
 30
0.0
  0
VERTEX
  8
1
  6
CONTINUOUS
 62
     2
 10
-26.24512899999999
 20
-28.677202
 30
0.0
  0
SEQEND
  8
1
  6
CONTINUOUS
 62
     2
  0
LINE
  8
1
  6
CONTINUOUS
 62
     2
 10
-42.74512899999999
 20
-28.677202
 30
0.0
 11
-27.24512899999999
 21
-28.677202
 31
0.0
  0
POLYLINE
  8
1
  6
CONTINUOUS
 62
     2
 66
     1
 10
0.0
 20
0.0
 30
0.0
  0
VERTEX
  8
1
  6
CONTINUOUS
 62
     2
 10
-43.74512899999999
 20
-29.487808
 30
0.0
  0
VERTEX
  8
1
  6
CONTINUOUS
 62
     2
 10
-43.74512899999999
 20
-28.177202
 30
0.0
  0
SEQEND
  8
1
  6
CONTINUOUS
 62
     2
  0
POLYLINE
  8
1
  6
CONTINUOUS
 62
     2
 66
     1
 10
0.0
 20
0.0
 30
0.0
  0
VERTEX
  8
1
  6
CONTINUOUS
 62
     2
 10
-26.24512899999999
 20
-29.487808
 30
0.0
  0
VERTEX
  8
1
  6
CONTINUOUS
 62
     2
 10
-26.24512899999999
 20
-28.177202
 30
0.0
  0
SEQEND
  8
1
  6
CONTINUOUS
 62
     2
  0
TEXT
  8
1
  6
CONTINUOUS
 62
     7
 10
-38.37012899999999
 20
-28.477202
 30
0.0
 40
3.0
  1
1
 41
0.5
  7
EXCESS_STANDARD
  0
TEXT
  8
1
  6
CONTINUOUS
 62
     7
 10
-36.87012899999999
 20
-28.477202
 30
0.0
 40
3.0
  1
7
 41
0.5
  7
EXCESS_STANDARD
  0
TEXT
  8
1
  6
CONTINUOUS
 62
     7
 10
-35.37012899999999
 20
-28.477202
 30
0.0
 40
3.0
  1
.
 41
0.5
  7
EXCESS_STANDARD
  0
TEXT
  8
1
  6
CONTINUOUS
 62
     7
 10
-34.62012899999999
 20
-28.477202
 30
0.0
 40
3.0
  1
5
 41
0.5
  7
EXCESS_STANDARD
  0
TEXT
  8
1
  6
CONTINUOUS
 62
     7
 10
-33.12012899999999
 20
-28.477202
 30
0.0
 40
3.0
  1
0
 41
0.5
  7
EXCESS_STANDARD
  0
POLYLINE
  8
1
  6
CONTINUOUS
 62
     2
 66
     1
 10
0.0
 20
0.0
 30
0.0
  0
VERTEX
  8
1
  6
CONTINUOUS
 62
     2
 10
-71.72523199999999
 20
-34.287808
 30
0.0
  0
VERTEX
  8
1
  6
CONTINUOUS
 62
     2
 10
-72.22523199999999
 20
-35.287808
 30
0.0
  0
VERTEX
  8
1
  6
CONTINUOUS
 62
     2
 10
-71.22523199999999
 20
-35.287808
 30
0.0
  0
VERTEX
  8
1
  6
CONTINUOUS
 62
     2
 10
-71.72523199999999
 20
-34.287808
 30
0.0
  0
SEQEND
  8
1
  6
CONTINUOUS
 62
     2
  0
POLYLINE
  8
1
  6
CONTINUOUS
 62
     2
 66
     1
 10
0.0
 20
0.0
 30
0.0
  0
VERTEX
  8
1
  6
CONTINUOUS
 62
     2
 10
-71.72523199999999
 20
-47.287808
 30
0.0
  0
VERTEX
  8
1
  6
CONTINUOUS
 62
     2
 10
-71.22523199999999
 20
-46.287808
 30
0.0
  0
VERTEX
  8
1
  6
CONTINUOUS
 62
     2
 10
-72.22523199999999
 20
-46.287808
 30
0.0
  0
VERTEX
  8
1
  6
CONTINUOUS
 62
     2
 10
-71.72523199999999
 20
-47.287808
 30
0.0
  0
SEQEND
  8
1
  6
CONTINUOUS
 62
     2
  0
LINE
  8
1
  6
CONTINUOUS
 62
     2
 10
-71.72523199999999
 20
-35.287808
 30
0.0
 11
-71.72523199999999
 21
-46.287808
 31
0.0
  0
POLYLINE
  8
1
  6
CONTINUOUS
 62
     2
 66
     1
 10
0.0
 20
0.0
 30
0.0
  0
VERTEX
  8
1
  6
CONTINUOUS
 62
     2
 10
-90.75423500190088
 20
-34.287808
 30
0.0
  0
VERTEX
  8
1
  6
CONTINUOUS
 62
     2
 10
-71.22523199999999
 20
-34.287808
 30
0.0
  0
SEQEND
  8
1
  6
CONTINUOUS
 62
     2
  0
POLYLINE
  8
1
  6
CONTINUOUS
 62
     2
 66
     1
 10
0.0
 20
0.0
 30
0.0
  0
VERTEX
  8
1
  6
CONTINUOUS
 62
     2
 10
-90.75423500003824
 20
-47.287808
 30
0.0
  0
VERTEX
  8
1
  6
CONTINUOUS
 62
     2
 10
-71.22523199999999
 20
-47.287808
 30
0.0
  0
SEQEND
  8
1
  6
CONTINUOUS
 62
     2
  0
TEXT
  8
1
  6
CONTINUOUS
 62
     7
 10
-71.925232
 20
-44.162808
 30
0.0
 40
3.0
  1
1
 50
90.0
 41
0.5
  7
EXCESS_STANDARD
  0
TEXT
  8
1
  6
CONTINUOUS
 62
     7
 10
-71.925232
 20
-42.662808
 30
0.0
 40
3.0
  1
3
 50
90.0
 41
0.5
  7
EXCESS_STANDARD
  0
TEXT
  8
1
  6
CONTINUOUS
 62
     7
 10
-71.925232
 20
-41.162808
 30
0.0
 40
3.0
  1
.
 50
90.0
 41
0.5
  7
EXCESS_STANDARD
  0
TEXT
  8
1
  6
CONTINUOUS
 62
     7
 10
-71.925232
 20
-40.412808
 30
0.0
 40
3.0
  1
0
 50
90.0
 41
0.5
  7
EXCESS_STANDARD
  0
TEXT
  8
1
  6
CONTINUOUS
 62
     7
 10
-71.925232
 20
-38.912808
 30
0.0
 40
3.0
  1
0
 50
90.0
 41
0.5
  7
EXCESS_STANDARD
  0
POLYLINE
  8
1
  6
CONTINUOUS
 62
     2
 66
     1
 10
0.0
 20
0.0
 30
0.0
  0
VERTEX
  8
1
  6
CONTINUOUS
 62
     2
 10
-91.05423500190088
 20
-44.798096
 30
0.0
  0
VERTEX
  8
1
  6
CONTINUOUS
 62
     2
 10
-90.05423500190088
 20
-45.298096
 30
0.0
  0
VERTEX
  8
1
  6
CONTINUOUS
 62
     2
 10
-90.05423500190088
 20
-44.298096
 30
0.0
  0
VERTEX
  8
1
  6
CONTINUOUS
 62
     2
 10
-91.05423500190088
 20
-44.798096
 30
0.0
  0
SEQEND
  8
1
  6
CONTINUOUS
 62
     2
  0
POLYLINE
  8
1
  6
CONTINUOUS
 62
     2
 66
     1
 10
0.0
 20
0.0
 30
0.0
  0
VERTEX
  8
1
  6
CONTINUOUS
 62
     2
 10
-76.55423500003823
 20
-44.798096
 30
0.0
  0
VERTEX
  8
1
  6
CONTINUOUS
 62
     2
 10
-77.55423500003823
 20
-44.298096
 30
0.0
  0
VERTEX
  8
1
  6
CONTINUOUS
 62
     2
 10
-77.55423500003823
 20
-45.298096
 30
0.0
  0
VERTEX
  8
1
  6
CONTINUOUS
 62
     2
 10
-76.55423500003823
 20
-44.798096
 30
0.0
  0
SEQEND
  8
1
  6
CONTINUOUS
 62
     2
  0
LINE
  8
1
  6
CONTINUOUS
 62
     2
 10
-90.05423500190088
 20
-44.798096
 30
0.0
 11
-77.55423500003823
 21
-44.798096
 31
0.0
  0
POLYLINE
  8
1
  6
CONTINUOUS
 62
     2
 66
     1
 10
0.0
 20
0.0
 30
0.0
  0
VERTEX
  8
1
  6
CONTINUOUS
 62
     2
 10
-91.05423500190088
 20
-34.587808
 30
0.0
  0
VERTEX
  8
1
  6
CONTINUOUS
 62
     2
 10
-91.05423500190088
 20
-45.298096
 30
0.0
  0
SEQEND
  8
1
  6
CONTINUOUS
 62
     2
  0
POLYLINE
  8
1
  6
CONTINUOUS
 62
     2
 66
     1
 10
0.0
 20
0.0
 30
0.0
  0
VERTEX
  8
1
  6
CONTINUOUS
 62
     2
 10
-76.55423500003823
 20
-34.587808
 30
0.0
  0
VERTEX
  8
1
  6
CONTINUOUS
 62
     2
 10
-76.55423500003823
 20
-45.298096
 30
0.0
  0
SEQEND
  8
1
  6
CONTINUOUS
 62
     2
  0
TEXT
  8
1
  6
CONTINUOUS
 62
     7
 10
-87.17923500096956
 20
-44.598096
 30
0.0
 40
3.0
  1
1
 41
0.5
  7
EXCESS_STANDARD
  0
TEXT
  8
1
  6
CONTINUOUS
 62
     7
 10
-85.67923500096956
 20
-44.598096
 30
0.0
 40
3.0
  1
4
 41
0.5
  7
EXCESS_STANDARD
  0
TEXT
  8
1
  6
CONTINUOUS
 62
     7
 10
-84.17923500096956
 20
-44.598096
 30
0.0
 40
3.0
  1
.
 41
0.5
  7
EXCESS_STANDARD
  0
TEXT
  8
1
  6
CONTINUOUS
 62
     7
 10
-83.42923500096956
 20
-44.598096
 30
0.0
 40
3.0
  1
5
 41
0.5
  7
EXCESS_STANDARD
  0
TEXT
  8
1
  6
CONTINUOUS
 62
     7
 10
-81.92923500096956
 20
-44.598096
 30
0.0
 40
3.0
  1
0
 41
0.5
  7
EXCESS_STANDARD
  0
POLYLINE
  8
1
  6
CONTINUOUS
 62
     2
 66
     1
 10
0.0
 20
0.0
 30
0.0
  0
VERTEX
  8
1
  6
CONTINUOUS
 62
     2
 10
-76.55423500003823
 20
-56.547966
 30
0.0
  0
VERTEX
  8
1
  6
CONTINUOUS
 62
     2
 10
-75.55423500003823
 20
-57.047966
 30
0.0
  0
VERTEX
  8
1
  6
CONTINUOUS
 62
     2
 10
-75.55423500003823
 20
-56.047966
 30
0.0
  0
VERTEX
  8
1
  6
CONTINUOUS
 62
     2
 10
-76.55423500003823
 20
-56.547966
 30
0.0
  0
SEQEND
  8
1
  6
CONTINUOUS
 62
     2
  0
POLYLINE
  8
1
  6
CONTINUOUS
 62
     2
 66
     1
 10
0.0
 20
0.0
 30
0.0
  0
VERTEX
  8
1
  6
CONTINUOUS
 62
     2
 10
-59.05423500003823
 20
-56.547966
 30
0.0
  0
VERTEX
  8
1
  6
CONTINUOUS
 62
     2
 10
-60.05423500003823
 20
-56.047966
 30
0.0
  0
VERTEX
  8
1
  6
CONTINUOUS
 62
     2
 10
-60.05423500003823
 20
-57.047966
 30
0.0
  0
VERTEX
  8
1
  6
CONTINUOUS
 62
     2
 10
-59.05423500003823
 20
-56.547966
 30
0.0
  0
SEQEND
  8
1
  6
CONTINUOUS
 62
     2
  0
LINE
  8
1
  6
CONTINUOUS
 62
     2
 10
-75.55423500003823
 20
-56.547966
 30
0.0
 11
-60.05423500003823
 21
-56.547966
 31
0.0
  0
POLYLINE
  8
1
  6
CONTINUOUS
 62
     2
 66
     1
 10
0.0
 20
0.0
 30
0.0
  0
VERTEX
  8
1
  6
CONTINUOUS
 62
     2
 10
-76.55423500003823
 20
-30.087808
 30
0.0
  0
VERTEX
  8
1
  6
CONTINUOUS
 62
     2
 10
-76.55423500003823
 20
-57.047966
 30
0.0
  0
SEQEND
  8
1
  6
CONTINUOUS
 62
     2
  0
POLYLINE
  8
1
  6
CONTINUOUS
 62
     2
 66
     1
 10
0.0
 20
0.0
 30
0.0
  0
VERTEX
  8
1
  6
CONTINUOUS
 62
     2
 10
-59.05423500003823
 20
-30.087808
 30
0.0
  0
VERTEX
  8
1
  6
CONTINUOUS
 62
     2
 10
-59.05423500003823
 20
-57.047966
 30
0.0
  0
SEQEND
  8
1
  6
CONTINUOUS
 62
     2
  0
TEXT
  8
1
  6
CONTINUOUS
 62
     7
 10
-71.17923500003823
 20
-56.34796599999999
 30
0.0
 40
3.0
  1
1
 41
0.5
  7
EXCESS_STANDARD
  0
TEXT
  8
1
  6
CONTINUOUS
 62
     7
 10
-69.67923500003823
 20
-56.34796599999999
 30
0.0
 40
3.0
  1
7
 41
0.5
  7
EXCESS_STANDARD
  0
TEXT
  8
1
  6
CONTINUOUS
 62
     7
 10
-68.17923500003823
 20
-56.34796599999999
 30
0.0
 40
3.0
  1
.
 41
0.5
  7
EXCESS_STANDARD
  0
TEXT
  8
1
  6
CONTINUOUS
 62
     7
 10
-67.42923500003823
 20
-56.34796599999999
 30
0.0
 40
3.0
  1
5
 41
0.5
  7
EXCESS_STANDARD
  0
TEXT
  8
1
  6
CONTINUOUS
 62
     7
 10
-65.92923500003823
 20
-56.34796599999999
 30
0.0
 40
3.0
  1
0
 41
0.5
  7
EXCESS_STANDARD
  0
POLYLINE
  8
1
  6
CONTINUOUS
 62
     2
 66
     1
 10
0.0
 20
0.0
 30
0.0
  0
VERTEX
  8
1
  6
CONTINUOUS
 62
     2
 10
-33.74512899999999
 20
-17.963746
 30
0.0
  0
VERTEX
  8
1
  6
CONTINUOUS
 62
     2
 10
-34.74512899999999
 20
-17.463746
 30
0.0
  0
VERTEX
  8
1
  6
CONTINUOUS
 62
     2
 10
-34.74512899999999
 20
-18.463746
 30
0.0
  0
VERTEX
  8
1
  6
CONTINUOUS
 62
     2
 10
-33.74512899999999
 20
-17.963746
 30
0.0
  0
SEQEND
  8
1
  6
CONTINUOUS
 62
     2
  0
POLYLINE
  8
1
  6
CONTINUOUS
 62
     2
 66
     1
 10
0.0
 20
0.0
 30
0.0
  0
VERTEX
  8
1
  6
CONTINUOUS
 62
     2
 10
-43.74512899999999
 20
-17.963746
 30
0.0
  0
VERTEX
  8
1
  6
CONTINUOUS
 62
     2
 10
-42.74512899999999
 20
-18.463746
 30
0.0
  0
VERTEX
  8
1
  6
CONTINUOUS
 62
     2
 10
-42.74512899999999
 20
-17.463746
 30
0.0
  0
VERTEX
  8
1
  6
CONTINUOUS
 62
     2
 10
-43.74512899999999
 20
-17.963746
 30
0.0
  0
SEQEND
  8
1
  6
CONTINUOUS
 62
     2
  0
LINE
  8
1
  6
CONTINUOUS
 62
     2
 10
-34.74512899999999
 20
-17.963746
 30
0.0
 11
-42.74512899999999
 21
-17.963746
 31
0.0
  0
POLYLINE
  8
1
  6
CONTINUOUS
 62
     2
 66
     1
 10
0.0
 20
0.0
 30
0.0
  0
VERTEX
  8
1
  6
CONTINUOUS
 62
     2
 10
-33.74512899999999
 20
-5.914749000297664
 30
0.0
  0
VERTEX
  8
1
  6
CONTINUOUS
 62
     2
 10
-33.74512899999999
 20
-18.463746
 30
0.0
  0
SEQEND
  8
1
  6
CONTINUOUS
 62
     2
  0
POLYLINE
  8
1
  6
CONTINUOUS
 62
     2
 66
     1
 10
0.0
 20
0.0
 30
0.0
  0
VERTEX
  8
1
  6
CONTINUOUS
 62
     2
 10
-43.74512899999999
 20
-10.91474900029766
 30
0.0
  0
VERTEX
  8
1
  6
CONTINUOUS
 62
     2
 10
-43.74512899999999
 20
-18.463746
 30
0.0
  0
SEQEND
  8
1
  6
CONTINUOUS
 62
     2
  0
TEXT
  8
1
  6
CONTINUOUS
 62
     7
 10
-42.12012899999999
 20
-17.763746
 30
0.0
 40
3.0
  1
1
 41
0.5
  7
EXCESS_STANDARD
  0
TEXT
  8
1
  6
CONTINUOUS
 62
     7
 10
-40.62012899999999
 20
-17.763746
 30
0.0
 40
3.0
  1
0
 41
0.5
  7
EXCESS_STANDARD
  0
TEXT
  8
1
  6
CONTINUOUS
 62
     7
 10
-39.12012899999999
 20
-17.763746
 30
0.0
 40
3.0
  1
.
 41
0.5
  7
EXCESS_STANDARD
  0
TEXT
  8
1
  6
CONTINUOUS
 62
     7
 10
-38.37012899999999
 20
-17.763746
 30
0.0
 40
3.0
  1
0
 41
0.5
  7
EXCESS_STANDARD
  0
TEXT
  8
1
  6
CONTINUOUS
 62
     7
 10
-36.87012899999999
 20
-17.763746
 30
0.0
 40
3.0
  1
0
 41
0.5
  7
EXCESS_STANDARD
  0
POLYLINE
  8
1
  6
CONTINUOUS
 62
     2
 66
     1
 10
0.0
 20
0.0
 30
0.0
  0
VERTEX
  8
1
  6
CONTINUOUS
 62
     2
 10
-47.50956399999999
 20
-5.614749000297662
 30
0.0
  0
VERTEX
  8
1
  6
CONTINUOUS
 62
     2
 10
-47.00956399999999
 20
-4.614749000297662
 30
0.0
  0
VERTEX
  8
1
  6
CONTINUOUS
 62
     2
 10
-48.00956399999999
 20
-4.614749000297662
 30
0.0
  0
VERTEX
  8
1
  6
CONTINUOUS
 62
     2
 10
-47.50956399999999
 20
-5.614749000297662
 30
0.0
  0
SEQEND
  8
1
  6
CONTINUOUS
 62
     2
  0
LINE
  8
1
  6
CONTINUOUS
 62
     2
 10
-47.50956399999999
 20
-4.614749000297662
 30
0.0
 11
-47.50956399999999
 21
-3.614749000297662
 31
0.0
  0
POLYLINE
  8
1
  6
CONTINUOUS
 62
     2
 66
     1
 10
0.0
 20
0.0
 30
0.0
  0
VERTEX
  8
1
  6
CONTINUOUS
 62
     2
 10
-47.50956399999999
 20
-10.61474900029766
 30
0.0
  0
VERTEX
  8
1
  6
CONTINUOUS
 62
     2
 10
-48.00956399999999
 20
-11.61474900029766
 30
0.0
  0
VERTEX
  8
1
  6
CONTINUOUS
 62
     2
 10
-47.00956399999999
 20
-11.61474900029766
 30
0.0
  0
VERTEX
  8
1
  6
CONTINUOUS
 62
     2
 10
-47.50956399999999
 20
-10.61474900029766
 30
0.0
  0
SEQEND
  8
1
  6
CONTINUOUS
 62
     2
  0
LINE
  8
1
  6
CONTINUOUS
 62
     2
 10
-47.50956399999999
 20
-11.61474900029766
 30
0.0
 11
-47.50956399999999
 21
-12.61474900029766
 31
0.0
  0
LINE
  8
1
  6
CONTINUOUS
 62
     2
 10
-47.50956399999999
 20
-5.614749000297662
 30
0.0
 11
-47.50956399999999
 21
-10.61474900029766
 31
0.0
  0
POLYLINE
  8
1
  6
CONTINUOUS
 62
     2
 66
     1
 10
0.0
 20
0.0
 30
0.0
  0
VERTEX
  8
1
  6
CONTINUOUS
 62
     2
 10
-34.04512899999999
 20
-5.614749000297664
 30
0.0
  0
VERTEX
  8
1
  6
CONTINUOUS
 62
     2
 10
-48.00956399999999
 20
-5.614749000297662
 30
0.0
  0
SEQEND
  8
1
  6
CONTINUOUS
 62
     2
  0
POLYLINE
  8
1
  6
CONTINUOUS
 62
     2
 66
     1
 10
0.0
 20
0.0
 30
0.0
  0
VERTEX
  8
1
  6
CONTINUOUS
 62
     2
 10
-44.04512899999999
 20
-10.61474900029766
 30
0.0
  0
VERTEX
  8
1
  6
CONTINUOUS
 62
     2
 10
-48.00956399999999
 20
-10.61474900029766
 30
0.0
  0
SEQEND
  8
1
  6
CONTINUOUS
 62
     2
  0
TEXT
  8
1
  6
CONTINUOUS
 62
     7
 10
-47.70956399999999
 20
-10.73974900029766
 30
0.0
 40
3.0
  1
5
 50
90.0
 41
0.5
  7
EXCESS_STANDARD
  0
TEXT
  8
1
  6
CONTINUOUS
 62
     7
 10
-47.70956399999999
 20
-9.239749000297664
 30
0.0
 40
3.0
  1
.
 50
90.0
 41
0.5
  7
EXCESS_STANDARD
  0
TEXT
  8
1
  6
CONTINUOUS
 62
     7
 10
-47.70956399999999
 20
-8.489749000297664
 30
0.0
 40
3.0
  1
0
 50
90.0
 41
0.5
  7
EXCESS_STANDARD
  0
TEXT
  8
1
  6
CONTINUOUS
 62
     7
 10
-47.70956399999999
 20
-6.989749000297664
 30
0.0
 40
3.0
  1
0
 50
90.0
 41
0.5
  7
EXCESS_STANDARD
  0
POLYLINE
  8
1
  6
CONTINUOUS
 62
     2
 66
     1
 10
0.0
 20
0.0
 30
0.0
  0
VERTEX
  8
1
  6
CONTINUOUS
 62
     2
 10
-26.07228099999999
 20
-1.914749000297661
 30
0.0
  0
VERTEX
  8
1
  6
CONTINUOUS
 62
     2
 10
-26.57228099999999
 20
-2.914749000297661
 30
0.0
  0
VERTEX
  8
1
  6
CONTINUOUS
 62
     2
 10
-25.57228099999999
 20
-2.914749000297661
 30
0.0
  0
VERTEX
  8
1
  6
CONTINUOUS
 62
     2
 10
-26.07228099999999
 20
-1.914749000297661
 30
0.0
  0
SEQEND
  8
1
  6
CONTINUOUS
 62
     2
  0
POLYLINE
  8
1
  6
CONTINUOUS
 62
     2
 66
     1
 10
0.0
 20
0.0
 30
0.0
  0
VERTEX
  8
1
  6
CONTINUOUS
 62
     2
 10
-26.07228099999999
 20
-9.314749000297674
 30
0.0
  0
VERTEX
  8
1
  6
CONTINUOUS
 62
     2
 10
-25.57228099999999
 20
-8.314749000297674
 30
0.0
  0
VERTEX
  8
1
  6
CONTINUOUS
 62
     2
 10
-26.57228099999999
 20
-8.314749000297674
 30
0.0
  0
VERTEX
  8
1
  6
CONTINUOUS
 62
     2
 10
-26.07228099999999
 20
-9.314749000297674
 30
0.0
  0
SEQEND
  8
1
  6
CONTINUOUS
 62
     2
  0
LINE
  8
1
  6
CONTINUOUS
 62
     2
 10
-26.07228099999999
 20
-2.914749000297661
 30
0.0
 11
-26.07228099999999
 21
-8.314749000297674
 31
0.0
  0
POLYLINE
  8
1
  6
CONTINUOUS
 62
     2
 66
     1
 10
0.0
 20
0.0
 30
0.0
  0
VERTEX
  8
1
  6
CONTINUOUS
 62
     2
 10
-31.30893300399837
 20
-1.914749000297661
 30
0.0
  0
VERTEX
  8
1
  6
CONTINUOUS
 62
     2
 10
-25.57228099999999
 20
-1.914749000297661
 30
0.0
  0
SEQEND
  8
1
  6
CONTINUOUS
 62
     2
  0
POLYLINE
  8
1
  6
CONTINUOUS
 62
     2
 66
     1
 10
0.0
 20
0.0
 30
0.0
  0
VERTEX
  8
1
  6
CONTINUOUS
 62
     2
 10
-31.30893300399837
 20
-9.314749000297674
 30
0.0
  0
VERTEX
  8
1
  6
CONTINUOUS
 62
     2
 10
-25.57228099999999
 20
-9.314749000297674
 30
0.0
  0
SEQEND
  8
1
  6
CONTINUOUS
 62
     2
  0
TEXT
  8
1
  6
CONTINUOUS
 62
     7
 10
-26.27228099999999
 20
-8.239749000297667
 30
0.0
 40
3.0
  1
7
 50
90.0
 41
0.5
  7
EXCESS_STANDARD
  0
TEXT
  8
1
  6
CONTINUOUS
 62
     7
 10
-26.27228099999999
 20
-6.739749000297667
 30
0.0
 40
3.0
  1
.
 50
90.0
 41
0.5
  7
EXCESS_STANDARD
  0
TEXT
  8
1
  6
CONTINUOUS
 62
     7
 10
-26.27228099999999
 20
-5.989749000297667
 30
0.0
 40
3.0
  1
4
 50
90.0
 41
0.5
  7
EXCESS_STANDARD
  0
TEXT
  8
1
  6
CONTINUOUS
 62
     7
 10
-26.27228099999999
 20
-4.489749000297667
 30
0.0
 40
3.0
  1
0
 50
90.0
 41
0.5
  7
EXCESS_STANDARD
  0
POLYLINE
  8
1
  6
CONTINUOUS
 62
     2
 66
     1
 10
0.0
 20
0.0
 30
0.0
  0
VERTEX
  8
1
  6
CONTINUOUS
 62
     2
 10
-39.98494599999999
 20
-31.287808
 30
0.0
  0
VERTEX
  8
1
  6
CONTINUOUS
 62
     2
 10
-39.48494599999999
 20
-30.287808
 30
0.0
  0
VERTEX
  8
1
  6
CONTINUOUS
 62
     2
 10
-40.48494599999999
 20
-30.287808
 30
0.0
  0
VERTEX
  8
1
  6
CONTINUOUS
 62
     2
 10
-39.98494599999999
 20
-31.287808
 30
0.0
  0
SEQEND
  8
1
  6
CONTINUOUS
 62
     2
  0
LINE
  8
1
  6
CONTINUOUS
 62
     2
 10
-39.98494599999999
 20
-30.287808
 30
0.0
 11
-39.98494599999999
 21
-29.287808
 31
0.0
  0
POLYLINE
  8
1
  6
CONTINUOUS
 62
     2
 66
     1
 10
0.0
 20
0.0
 30
0.0
  0
VERTEX
  8
1
  6
CONTINUOUS
 62
     2
 10
-39.98494599999999
 20
-34.28780799885392
 30
0.0
  0
VERTEX
  8
1
  6
CONTINUOUS
 62
     2
 10
-40.48494599999999
 20
-35.28780799885392
 30
0.0
  0
VERTEX
  8
1
  6
CONTINUOUS
 62
     2
 10
-39.48494599999999
 20
-35.28780799885392
 30
0.0
  0
VERTEX
  8
1
  6
CONTINUOUS
 62
     2
 10
-39.98494599999999
 20
-34.28780799885392
 30
0.0
  0
SEQEND
  8
1
  6
CONTINUOUS
 62
     2
  0
LINE
  8
1
  6
CONTINUOUS
 62
     2
 10
-39.98494599999999
 20
-35.28780799885392
 30
0.0
 11
-39.98494599999999
 21
-43.96362599999999
 31
0.0
  0
LINE
  8
1
  6
CONTINUOUS
 62
     2
 10
-39.98494599999999
 20
-31.287808
 30
0.0
 11
-39.98494599999999
 21
-34.28780799885392
 31
0.0
  0
POLYLINE
  8
1
  6
CONTINUOUS
 62
     2
 66
     1
 10
0.0
 20
0.0
 30
0.0
  0
VERTEX
  8
1
  6
CONTINUOUS
 62
     2
 10
-37.74512899999999
 20
-31.287808
 30
0.0
  0
VERTEX
  8
1
  6
CONTINUOUS
 62
     2
 10
-40.48494599999999
 20
-31.287808
 30
0.0
  0
SEQEND
  8
1
  6
CONTINUOUS
 62
     2
  0
POLYLINE
  8
1
  6
CONTINUOUS
 62
     2
 66
     1
 10
0.0
 20
0.0
 30
0.0
  0
VERTEX
  8
1
  6
CONTINUOUS
 62
     2
 10
-37.74512899999999
 20
-34.28780799885392
 30
0.0
  0
VERTEX
  8
1
  6
CONTINUOUS
 62
     2
 10
-40.48494599999999
 20
-34.28780799885392
 30
0.0
  0
SEQEND
  8
1
  6
CONTINUOUS
 62
     2
  0
TEXT
  8
1
  6
CONTINUOUS
 62
     7
 10
-40.18494599999999
 20
-43.96362599999999
 30
0.0
 40
3.0
  1
3
 50
90.0
 41
0.5
  7
EXCESS_STANDARD
  0
TEXT
  8
1
  6
CONTINUOUS
 62
     7
 10
-40.18494599999999
 20
-42.46362599999999
 30
0.0
 40
3.0
  1
.
 50
90.0
 41
0.5
  7
EXCESS_STANDARD
  0
TEXT
  8
1
  6
CONTINUOUS
 62
     7
 10
-40.18494599999999
 20
-41.71362599999999
 30
0.0
 40
3.0
  1
0
 50
90.0
 41
0.5
  7
EXCESS_STANDARD
  0
TEXT
  8
1
  6
CONTINUOUS
 62
     7
 10
-40.18494599999999
 20
-40.21362599999999
 30
0.0
 40
3.0
  1
0
 50
90.0
 41
0.5
  7
EXCESS_STANDARD
  0
POLYLINE
  8
1
  6
CONTINUOUS
 62
     2
 66
     1
 10
0.0
 20
0.0
 30
0.0
  0
VERTEX
  8
1
  6
CONTINUOUS
 62
     2
 10
-35.23571215533224
 20
-3.303761796300257
 30
0.0
  0
VERTEX
  8
1
  6
CONTINUOUS
 62
     2
 10
-35.35756290199898
 20
-2.192387693877154
 30
0.0
  0
VERTEX
  8
1
  6
CONTINUOUS
 62
     2
 10
-36.19792188527077
 20
-2.734417932179789
 30
0.0
  0
VERTEX
  8
1
  6
CONTINUOUS
 62
     2
 10
-35.23571215533224
 20
-3.303761796300257
 30
0.0
  0
SEQEND
  8
1
  6
CONTINUOUS
 62
     2
  0
LINE
  8
1
  6
CONTINUOUS
 62
     2
 10
-35.77774239363487
 20
-2.463402813028472
 30
0.0
 11
-42.30997499999997
 21
7.664114000000016
 31
0.0
  0
POLYLINE
  8
1
  6
CONTINUOUS
 62
     2
 66
     1
 10
0.0
 20
0.0
 30
0.0
  0
VERTEX
  8
1
  6
CONTINUOUS
 62
     2
 10
-42.30997499999997
 20
7.664114000000016
 30
0.0
  0
VERTEX
  8
1
  6
CONTINUOUS
 62
     2
 10
-49.55997499999997
 20
7.664114000000017
 30
0.0
  0
SEQEND
  8
1
  6
CONTINUOUS
 62
     2
  0
TEXT
  8
1
  6
CONTINUOUS
 62
     7
 10
-48.05997499999997
 20
7.864114000000016
 30
0.0
 40
2.999999999999999
  1
5
 41
0.5000000000000001
  7
EXCESS_STANDARD
  0
TEXT
  8
1
  6
CONTINUOUS
 62
     7
 10
-46.55997499999997
 20
7.864114000000016
 30
0.0
 40
2.999999999999999
  1
.
 41
0.5000000000000001
  7
EXCESS_STANDARD
  0
TEXT
  8
1
  6
CONTINUOUS
 62
     7
 10
-45.80997499999997
 20
7.864114000000016
 30
0.0
 40
2.999999999999999
  1
5
 41
0.5000000000000001
  7
EXCESS_STANDARD
  0
TEXT
  8
1
  6
CONTINUOUS
 62
     7
 10
-44.30997499999997
 20
7.864114000000016
 30
0.0
 40
2.999999999999999
  1
0
 41
0.5000000000000001
  7
EXCESS_STANDARD
  0
TEXT
  8
1
  6
CONTINUOUS
 62
     7
 10
-49.55997499999997
 20
7.864114000000016
 30
0.0
 40
2.999999999999999
  1
%%c
 41
0.5000000000000001
  7
EXCESS_STANDARD
  0
TEXT
  8
1
  6
CONTINUOUS
 62
     7
 10
-119.317925
 20
81.731706
 30
0.0
 40
4.0
  1
M
 41
0.5
  7
EXCESS_STANDARD
  0
TEXT
  8
1
  6
CONTINUOUS
 62
     7
 10
-116.817925
 20
81.731706
 30
0.0
 40
4.0
  1
4
 41
0.5
  7
EXCESS_STANDARD
  0
TEXT
  8
1
  6
CONTINUOUS
 62
     7
 10
-114.317925
 20
81.731706
 30
0.0
 40
4.0
  1
 
 41
0.5
  7
EXCESS_STANDARD
  0
TEXT
  8
1
  6
CONTINUOUS
 62
     7
 10
-111.817925
 20
81.731706
 30
0.0
 40
4.0
  1
ユ
  7
EXCESS_STANDARD
  0
TEXT
  8
1
  6
CONTINUOUS
 62
     7
 10
-107.317925
 20
81.731706
 30
0.0
 40
4.0
  1
リ
  7
EXCESS_STANDARD
  0
TEXT
  8
1
  6
CONTINUOUS
 62
     7
 10
-102.817925
 20
81.731706
 30
0.0
 40
4.0
  1
ヤ
  7
EXCESS_STANDARD
  0
TEXT
  8
1
  6
CONTINUOUS
 62
     7
 10
-98.31792499999999
 20
81.731706
 30
0.0
 40
4.0
  1
ね
  7
EXCESS_STANDARD
  0
TEXT
  8
1
  6
CONTINUOUS
 62
     7
 10
-93.81792499999999
 20
81.731706
 30
0.0
 40
4.0
  1
じ
  7
EXCESS_STANDARD
  0
TEXT
  8
1
  6
CONTINUOUS
 62
     7
 10
-96.327018
 20
72.848863
 30
0.0
 40
4.0
  1
購
  7
EXCESS_STANDARD
  0
TEXT
  8
1
  6
CONTINUOUS
 62
     7
 10
-91.827018
 20
72.848863
 30
0.0
 40
4.0
  1
入
  7
EXCESS_STANDARD
  0
TEXT
  8
1
  6
CONTINUOUS
 62
     7
 10
-87.327018
 20
72.848863
 30
0.0
 40
4.0
  1
品
  7
EXCESS_STANDARD
  0
TEXT
  8
1
  6
CONTINUOUS
 62
     7
 10
-51.305578
 20
85.362207
 30
0.0
 40
4.0
  1
m
 41
0.5
  7
EXCESS_STANDARD
  0
TEXT
  8
1
  6
CONTINUOUS
 62
     7
 10
-48.805578
 20
85.362207
 30
0.0
 40
4.0
  1
４
  7
EXCESS_STANDARD
  0
TEXT
  8
1
  6
CONTINUOUS
 62
     7
 10
-44.305578
 20
85.362207
 30
0.0
 40
4.0
  1
ナ
  7
EXCESS_STANDARD
  0
TEXT
  8
1
  6
CONTINUOUS
 62
     7
 10
-39.805578
 20
85.362207
 30
0.0
 40
4.0
  1
ッ
  7
EXCESS_STANDARD
  0
TEXT
  8
1
  6
CONTINUOUS
 62
     7
 10
-35.305578
 20
85.362207
 30
0.0
 40
4.0
  1
ト
  7
EXCESS_STANDARD
  0
TEXT
  8
1
  6
CONTINUOUS
 62
     7
 10
-17.56330999999999
 20
-31.429988
 30
0.0
 40
3.0
  1
左
  7
EXCESS_STANDARD
  0
TEXT
  8
1
  6
CONTINUOUS
 62
     7
 10
-83.30493599999998
 20
-31.507513
 30
0.0
 40
3.0
  1
右
  7
EXCESS_STANDARD
  0
TEXT
  8
1
  6
CONTINUOUS
 62
     7
 10
-84.88812999999999
 20
20.7902
 30
0.0
 40
4.0
  1
左
  7
EXCESS_STANDARD
  0
TEXT
  8
1
  6
CONTINUOUS
 62
     7
 10
-80.38812999999999
 20
20.7902
 30
0.0
 40
4.0
  1
パ
  7
EXCESS_STANDARD
  0
TEXT
  8
1
  6
CONTINUOUS
 62
     7
 10
-75.88812999999999
 20
20.7902
 30
0.0
 40
4.0
  1
ー
  7
EXCESS_STANDARD
  0
TEXT
  8
1
  6
CONTINUOUS
 62
     7
 10
-71.38812999999999
 20
20.7902
 30
0.0
 40
4.0
  1
ツ
  7
EXCESS_STANDARD
  0
TEXT
  8
1
  6
CONTINUOUS
 62
     7
 10
-30.941864
 20
19.669239
 30
0.0
 40
4.0
  1
右
  7
EXCESS_STANDARD
  0
TEXT
  8
1
  6
CONTINUOUS
 62
     7
 10
-26.441864
 20
19.669239
 30
0.0
 40
4.0
  1
パ
  7
EXCESS_STANDARD
  0
TEXT
  8
1
  6
CONTINUOUS
 62
     7
 10
-21.941864
 20
19.669239
 30
0.0
 40
4.0
  1
ー
  7
EXCESS_STANDARD
  0
TEXT
  8
1
  6
CONTINUOUS
 62
     7
 10
-17.441864
 20
19.669239
 30
0.0
 40
4.0
  1
ツ
  7
EXCESS_STANDARD
  0
POLYLINE
  8
2
  6
CONTINUOUS
 62
     6
 66
     1
 10
0.0
 20
0.0
 30
0.0
  0
VERTEX
  8
2
  6
CONTINUOUS
 62
     6
 10
-68.83425499982869
 20
72.46366300061345
 30
0.0
  0
VERTEX
  8
2
  6
CONTINUOUS
 62
     6
 10
-61.83425499965739
 20
72.46366300061345
 30
0.0
  0
VERTEX
  8
2
  6
CONTINUOUS
 62
     6
 10
-61.83425499965739
 20
69.46366300061345
 30
0.0
  0
VERTEX
  8
2
  6
CONTINUOUS
 62
     6
 10
-68.83425499982869
 20
69.46366300061345
 30
0.0
  0
VERTEX
  8
2
  6
CONTINUOUS
 62
     6
 10
-68.83425499982869
 20
72.46366300061345
 30
0.0
  0
SEQEND
  8
2
  6
CONTINUOUS
 62
     6
  0
POLYLINE
  8
100
  6
CONTINUOUS
 62
     4
 66
     1
 10
0.0
 20
0.0
 30
0.0
  0
VERTEX
  8
100
  6
CONTINUOUS
 62
     4
 10
-101.3392399996519
 20
76.19163499999999
 30
0.0
  0
VERTEX
  8
100
  6
CONTINUOUS
 62
     4
 10
-112.3392399996519
 20
76.19163499999999
 30
0.0
  0
VERTEX
  8
100
  6
CONTINUOUS
 62
     4
 10
-112.3392399996519
 20
71.19163499958813
 30
0.0
  0
VERTEX
  8
100
  6
CONTINUOUS
 62
     4
 10
-108.8392399996519
 20
71.19163499999999
 30
0.0
  0
VERTEX
  8
100
  6
CONTINUOUS
 62
     4
 10
-108.8392399996519
 20
61.19163499958813
 30
0.0
  0
VERTEX
  8
100
  6
CONTINUOUS
 62
     4
 10
-104.8392399996519
 20
61.19163499999999
 30
0.0
  0
VERTEX
  8
100
  6
CONTINUOUS
 62
     4
 10
-104.8392399996519
 20
71.19163499958813
 30
0.0
  0
VERTEX
  8
100
  6
CONTINUOUS
 62
     4
 10
-101.3392399996519
 20
71.19163499999999
 30
0.0
  0
VERTEX
  8
100
  6
CONTINUOUS
 62
     4
 10
-101.3392399996519
 20
76.19163499958813
 30
0.0
  0
SEQEND
  8
100
  6
CONTINUOUS
 62
     4
  0
LINE
  8
100
  6
CONTINUOUS
 62
     4
 10
-108.8392399996519
 20
71.19163499999999
 30
0.0
 11
-104.8392399996519
 21
71.19163499958813
 31
0.0
  0
LINE
  8
100
  6
CONTINUOUS
 62
     4
 10
-106.8392399996519
 20
71.14235199987888
 30
0.0
 11
-108.8392399996519
 21
69.14235199987888
 31
0.0
  0
LINE
  8
100
  6
CONTINUOUS
 62
     4
 10
-108.8392399996519
 20
67.72813843935728
 30
0.0
 11
-105.3757434394211
 21
71.19163499999999
 31
0.0
  0
LINE
  8
100
  6
CONTINUOUS
 62
     4
 10
-104.8392400015146
 20
70.31392487697303
 30
0.0
 11
-108.8392399996519
 21
66.31392487883568
 31
0.0
  0
LINE
  8
100
  6
CONTINUOUS
 62
     4
 10
-108.8392400015146
 20
64.89971131645143
 30
0.0
 11
-104.8392399996519
 21
68.89971131915712
 31
0.0
  0
LINE
  8
100
  6
CONTINUOUS
 62
     4
 10
-104.8392400015146
 20
67.48549775592983
 30
0.0
 11
-108.8392400015146
 21
63.48549775592983
 31
0.0
  0
LINE
  8
100
  6
CONTINUOUS
 62
     4
 10
-108.8392399996519
 20
62.07128419727087
 30
0.0
 11
-104.8392400015146
 21
66.07128419540823
 31
0.0
  0
LINE
  8
100
  6
CONTINUOUS
 62
     4
 10
-104.8392399996519
 20
64.65707063674927
 30
0.0
 11
-108.304675636813
 21
61.19163499958813
 31
0.0
  0
LINE
  8
100
  6
CONTINUOUS
 62
     4
 10
-106.8904620762914
 20
61.19163499958813
 30
0.0
 11
-104.8392399996519
 21
63.24285707622766
 31
0.0
  0
POLYLINE
  8
100
  6
CONTINUOUS
 62
     4
 66
     1
 10
0.0
 20
0.0
 30
0.0
  0
VERTEX
  8
100
  6
CONTINUOUS
 62
     4
 10
76.831511
 20
61.54286700020592
 30
0.0
  0
VERTEX
  8
100
  6
CONTINUOUS
 62
     4
 10
87.831511
 20
61.54286700020592
 30
0.0
  0
VERTEX
  8
100
  6
CONTINUOUS
 62
     4
 10
87.831511
 20
56.54286699979406
 30
0.0
  0
VERTEX
  8
100
  6
CONTINUOUS
 62
     4
 10
84.331511
 20
56.54286700020592
 30
0.0
  0
VERTEX
  8
100
  6
CONTINUOUS
 62
     4
 10
84.331511
 20
46.54286699979407
 30
0.0
  0
VERTEX
  8
100
  6
CONTINUOUS
 62
     4
 10
80.331511
 20
46.54286700020593
 30
0.0
  0
VERTEX
  8
100
  6
CONTINUOUS
 62
     4
 10
80.331511
 20
56.54286699979406
 30
0.0
  0
VERTEX
  8
100
  6
CONTINUOUS
 62
     4
 10
76.831511
 20
56.54286700020592
 30
0.0
  0
VERTEX
  8
100
  6
CONTINUOUS
 62
     4
 10
76.831511
 20
61.54286699979406
 30
0.0
  0
SEQEND
  8
100
  6
CONTINUOUS
 62
     4
  0
LINE
  8
100
  6
CONTINUOUS
 62
     4
 10
84.331511
 20
56.54286700020592
 30
0.0
 11
80.331511
 21
56.54286699979406
 31
0.0
  0
LINE
  8
100
  6
CONTINUOUS
 62
     4
 10
82.331511
 20
56.49358400008481
 30
0.0
 11
84.331511
 21
54.49358400008481
 31
0.0
  0
LINE
  8
100
  6
CONTINUOUS
 62
     4
 10
84.331511
 20
53.07937043956321
 30
0.0
 11
80.86801443976915
 21
56.54286700020592
 31
0.0
  0
LINE
  8
100
  6
CONTINUOUS
 62
     4
 10
80.33151100186265
 20
55.66515687717896
 30
0.0
 11
84.331511
 21
51.6651568790416
 31
0.0
  0
LINE
  8
100
  6
CONTINUOUS
 62
     4
 10
84.33151100186265
 20
50.25094331665736
 30
0.0
 11
80.331511
 21
54.25094331936305
 31
0.0
  0
LINE
  8
100
  6
CONTINUOUS
 62
     4
 10
80.33151100186265
 20
52.83672975613575
 30
0.0
 11
84.33151100186265
 21
48.83672975613577
 31
0.0
  0
LINE
  8
100
  6
CONTINUOUS
 62
     4
 10
84.331511
 20
47.42251619747681
 30
0.0
 11
80.33151100186265
 21
51.42251619561415
 31
0.0
  0
LINE
  8
100
  6
CONTINUOUS
 62
     4
 10
80.331511
 20
50.00830263695519
 30
0.0
 11
83.79694663716114
 21
46.54286699979407
 31
0.0
  0
LINE
  8
100
  6
CONTINUOUS
 62
     4
 10
82.38273307663954
 20
46.54286699979407
 30
0.0
 11
80.331511
 21
48.5940890764336
 31
0.0
  0
POLYLINE
  8
100
  6
CONTINUOUS
 62
     2
 66
     1
 10
0.0
 20
0.0
 30
0.0
  0
VERTEX
  8
100
  6
CONTINUOUS
 62
     2
 10
-116.79375
 20
71.19163499958813
 30
0.0
  0
VERTEX
  8
100
  6
CONTINUOUS
 62
     2
 10
-117.29375
 20
70.19163499958813
 30
0.0
  0
VERTEX
  8
100
  6
CONTINUOUS
 62
     2
 10
-116.29375
 20
70.19163499958813
 30
0.0
  0
VERTEX
  8
100
  6
CONTINUOUS
 62
     2
 10
-116.79375
 20
71.19163499958813
 30
0.0
  0
SEQEND
  8
100
  6
CONTINUOUS
 62
     2
  0
LINE
  8
100
  6
CONTINUOUS
 62
     2
 10
-116.79375
 20
70.19163499958813
 30
0.0
 11
-116.79375
 21
69.19163499958813
 31
0.0
  0
POLYLINE
  8
100
  6
CONTINUOUS
 62
     2
 66
     1
 10
0.0
 20
0.0
 30
0.0
  0
VERTEX
  8
100
  6
CONTINUOUS
 62
     2
 10
-116.79375
 20
76.19163499999999
 30
0.0
  0
VERTEX
  8
100
  6
CONTINUOUS
 62
     2
 10
-116.29375
 20
77.19163499999999
 30
0.0
  0
VERTEX
  8
100
  6
CONTINUOUS
 62
     2
 10
-117.29375
 20
77.19163499999999
 30
0.0
  0
VERTEX
  8
100
  6
CONTINUOUS
 62
     2
 10
-116.79375
 20
76.19163499999999
 30
0.0
  0
SEQEND
  8
100
  6
CONTINUOUS
 62
     2
  0
LINE
  8
100
  6
CONTINUOUS
 62
     2
 10
-116.79375
 20
77.19163499999999
 30
0.0
 11
-116.79375
 21
78.19163499999999
 31
0.0
  0
LINE
  8
100
  6
CONTINUOUS
 62
     2
 10
-116.79375
 20
71.19163499958813
 30
0.0
 11
-116.79375
 21
76.19163499999999
 31
0.0
  0
POLYLINE
  8
100
  6
CONTINUOUS
 62
     2
 66
     1
 10
0.0
 20
0.0
 30
0.0
  0
VERTEX
  8
100
  6
CONTINUOUS
 62
     2
 10
-112.6392399996519
 20
71.19163499958813
 30
0.0
  0
VERTEX
  8
100
  6
CONTINUOUS
 62
     2
 10
-117.29375
 20
71.19163499958813
 30
0.0
  0
SEQEND
  8
100
  6
CONTINUOUS
 62
     2
  0
POLYLINE
  8
100
  6
CONTINUOUS
 62
     2
 66
     1
 10
0.0
 20
0.0
 30
0.0
  0
VERTEX
  8
100
  6
CONTINUOUS
 62
     2
 10
-112.6392399996519
 20
76.19163499999999
 30
0.0
  0
VERTEX
  8
100
  6
CONTINUOUS
 62
     2
 10
-117.29375
 20
76.19163499999999
 30
0.0
  0
SEQEND
  8
100
  6
CONTINUOUS
 62
     2
  0
TEXT
  8
100
  6
CONTINUOUS
 62
     7
 10
-116.99375
 20
71.06663499979406
 30
0.0
 40
3.0
  1
5
 50
90.0
 41
0.5
  7
EXCESS_STANDARD
  0
TEXT
  8
100
  6
CONTINUOUS
 62
     7
 10
-116.99375
 20
72.56663499979406
 30
0.0
 40
3.0
  1
.
 50
90.0
 41
0.5
  7
EXCESS_STANDARD
  0
TEXT
  8
100
  6
CONTINUOUS
 62
     7
 10
-116.99375
 20
73.31663499979406
 30
0.0
 40
3.0
  1
0
 50
90.0
 41
0.5
  7
EXCESS_STANDARD
  0
TEXT
  8
100
  6
CONTINUOUS
 62
     7
 10
-116.99375
 20
74.81663499979406
 30
0.0
 40
3.0
  1
0
 50
90.0
 41
0.5
  7
EXCESS_STANDARD
  0
POLYLINE
  8
100
  6
CONTINUOUS
 62
     2
 66
     1
 10
0.0
 20
0.0
 30
0.0
  0
VERTEX
  8
100
  6
CONTINUOUS
 62
     2
 10
-108.8392399996519
 20
60.89163499958813
 30
0.0
  0
VERTEX
  8
100
  6
CONTINUOUS
 62
     2
 10
-108.8392399996519
 20
54.531191
 30
0.0
  0
SEQEND
  8
100
  6
CONTINUOUS
 62
     2
  0
POLYLINE
  8
100
  6
CONTINUOUS
 62
     2
 66
     1
 10
0.0
 20
0.0
 30
0.0
  0
VERTEX
  8
100
  6
CONTINUOUS
 62
     2
 10
-108.8392399996519
 20
55.031191
 30
0.0
  0
VERTEX
  8
100
  6
CONTINUOUS
 62
     2
 10
-109.8392399996519
 20
55.531191
 30
0.0
  0
VERTEX
  8
100
  6
CONTINUOUS
 62
     2
 10
-109.8392399996519
 20
54.531191
 30
0.0
  0
VERTEX
  8
100
  6
CONTINUOUS
 62
     2
 10
-108.8392399996519
 20
55.031191
 30
0.0
  0
SEQEND
  8
100
  6
CONTINUOUS
 62
     2
  0
LINE
  8
100
  6
CONTINUOUS
 62
     2
 10
-109.8392399996519
 20
55.031191
 30
0.0
 11
-110.8392399996519
 21
55.031191
 31
0.0
  0
POLYLINE
  8
100
  6
CONTINUOUS
 62
     2
 66
     1
 10
0.0
 20
0.0
 30
0.0
  0
VERTEX
  8
100
  6
CONTINUOUS
 62
     2
 10
-104.8392399996519
 20
55.031191
 30
0.0
  0
VERTEX
  8
100
  6
CONTINUOUS
 62
     2
 10
-103.8392399996519
 20
54.531191
 30
0.0
  0
VERTEX
  8
100
  6
CONTINUOUS
 62
     2
 10
-103.8392399996519
 20
55.531191
 30
0.0
  0
VERTEX
  8
100
  6
CONTINUOUS
 62
     2
 10
-104.8392399996519
 20
55.031191
 30
0.0
  0
SEQEND
  8
100
  6
CONTINUOUS
 62
     2
  0
LINE
  8
100
  6
CONTINUOUS
 62
     2
 10
-103.8392399996519
 20
55.031191
 30
0.0
 11
-94.405621
 21
55.031191
 31
0.0
  0
LINE
  8
100
  6
CONTINUOUS
 62
     2
 10
-108.8392399996519
 20
55.031191
 30
0.0
 11
-104.8392399996519
 21
55.031191
 31
0.0
  0
POLYLINE
  8
100
  6
CONTINUOUS
 62
     2
 66
     1
 10
0.0
 20
0.0
 30
0.0
  0
VERTEX
  8
100
  6
CONTINUOUS
 62
     2
 10
-104.8392399996519
 20
60.89163499999999
 30
0.0
  0
VERTEX
  8
100
  6
CONTINUOUS
 62
     2
 10
-104.8392399996519
 20
54.531191
 30
0.0
  0
SEQEND
  8
100
  6
CONTINUOUS
 62
     2
  0
TEXT
  8
100
  6
CONTINUOUS
 62
     7
 10
-99.655621
 20
55.231191
 30
0.0
 40
3.0
  1
4
 41
0.5
  7
EXCESS_STANDARD
  0
TEXT
  8
100
  6
CONTINUOUS
 62
     7
 10
-98.155621
 20
55.231191
 30
0.0
 40
3.0
  1
.
 41
0.5
  7
EXCESS_STANDARD
  0
TEXT
  8
100
  6
CONTINUOUS
 62
     7
 10
-97.405621
 20
55.231191
 30
0.0
 40
3.0
  1
0
 41
0.5
  7
EXCESS_STANDARD
  0
TEXT
  8
100
  6
CONTINUOUS
 62
     7
 10
-95.905621
 20
55.231191
 30
0.0
 40
3.0
  1
0
 41
0.5
  7
EXCESS_STANDARD
  0
TEXT
  8
100
  6
CONTINUOUS
 62
     7
 10
-101.155621
 20
55.231191
 30
0.0
 40
3.0
  1
M
 41
0.5
  7
EXCESS_STANDARD
  0
POLYLINE
  8
100
  6
CONTINUOUS
 62
     2
 66
     1
 10
0.0
 20
0.0
 30
0.0
  0
VERTEX
  8
100
  6
CONTINUOUS
 62
     2
 10
-123.422181
 20
76.19163499999999
 30
0.0
  0
VERTEX
  8
100
  6
CONTINUOUS
 62
     2
 10
-123.922181
 20
75.19163499999999
 30
0.0
  0
VERTEX
  8
100
  6
CONTINUOUS
 62
     2
 10
-122.922181
 20
75.19163499999999
 30
0.0
  0
VERTEX
  8
100
  6
CONTINUOUS
 62
     2
 10
-123.422181
 20
76.19163499999999
 30
0.0
  0
SEQEND
  8
100
  6
CONTINUOUS
 62
     2
  0
POLYLINE
  8
100
  6
CONTINUOUS
 62
     2
 66
     1
 10
0.0
 20
0.0
 30
0.0
  0
VERTEX
  8
100
  6
CONTINUOUS
 62
     2
 10
-123.422181
 20
61.19163499958813
 30
0.0
  0
VERTEX
  8
100
  6
CONTINUOUS
 62
     2
 10
-122.922181
 20
62.19163499958813
 30
0.0
  0
VERTEX
  8
100
  6
CONTINUOUS
 62
     2
 10
-123.922181
 20
62.19163499958813
 30
0.0
  0
VERTEX
  8
100
  6
CONTINUOUS
 62
     2
 10
-123.422181
 20
61.19163499958813
 30
0.0
  0
SEQEND
  8
100
  6
CONTINUOUS
 62
     2
  0
LINE
  8
100
  6
CONTINUOUS
 62
     2
 10
-123.422181
 20
75.19163499999999
 30
0.0
 11
-123.422181
 21
62.19163499958813
 31
0.0
  0
POLYLINE
  8
100
  6
CONTINUOUS
 62
     2
 66
     1
 10
0.0
 20
0.0
 30
0.0
  0
VERTEX
  8
100
  6
CONTINUOUS
 62
     2
 10
-112.6392399996519
 20
76.19163499999999
 30
0.0
  0
VERTEX
  8
100
  6
CONTINUOUS
 62
     2
 10
-123.922181
 20
76.19163499999999
 30
0.0
  0
SEQEND
  8
100
  6
CONTINUOUS
 62
     2
  0
POLYLINE
  8
100
  6
CONTINUOUS
 62
     2
 66
     1
 10
0.0
 20
0.0
 30
0.0
  0
VERTEX
  8
100
  6
CONTINUOUS
 62
     2
 10
-109.1392399996519
 20
61.19163499958813
 30
0.0
  0
VERTEX
  8
100
  6
CONTINUOUS
 62
     2
 10
-123.922181
 20
61.19163499958813
 30
0.0
  0
SEQEND
  8
100
  6
CONTINUOUS
 62
     2
  0
TEXT
  8
100
  6
CONTINUOUS
 62
     7
 10
-123.622181
 20
65.31663499979406
 30
0.0
 40
3.0
  1
1
 50
90.0
 41
0.5
  7
EXCESS_STANDARD
  0
TEXT
  8
100
  6
CONTINUOUS
 62
     7
 10
-123.622181
 20
66.81663499979406
 30
0.0
 40
3.0
  1
5
 50
90.0
 41
0.5
  7
EXCESS_STANDARD
  0
TEXT
  8
100
  6
CONTINUOUS
 62
     7
 10
-123.622181
 20
68.31663499979406
 30
0.0
 40
3.0
  1
.
 50
90.0
 41
0.5
  7
EXCESS_STANDARD
  0
TEXT
  8
100
  6
CONTINUOUS
 62
     7
 10
-123.622181
 20
69.06663499979406
 30
0.0
 40
3.0
  1
0
 50
90.0
 41
0.5
  7
EXCESS_STANDARD
  0
TEXT
  8
100
  6
CONTINUOUS
 62
     7
 10
-123.622181
 20
70.56663499979406
 30
0.0
 40
3.0
  1
0
 50
90.0
 41
0.5
  7
EXCESS_STANDARD
  0
ENDBLK
  8
0
  0
ENDSEC
  0
SECTION
  2
ENTITIES
  0
INSERT
  8
0
  2
0-NONE
 10
0.0
 20
0.0
 30
0.0
  0
ENDSEC
  0
EOF
