  0
SECTION
  2
HEADER
  9
$ACADVER
  1
AC1009
  9
$DWGCODEPAGE
  3
dos932
  9
$INSBASE
 10
0.0
 20
0.0
 30
0.0
  9
$EXTMIN
 10
-236.891656
 20
-135.0
 30
0.0
  9
$EXTMAX
 10
190.0
 20
135.0
 30
0.0
  9
$LIMMIN
 10
0.0
 20
0.0
  9
$LIMMAX
 10
420.0
 20
297.0
  9
$ORTHOMODE
 70
     0
  9
$REGENMODE
 70
     1
  9
$FILLMODE
 70
     1
  9
$QTEXTMODE
 70
     0
  9
$MIRRTEXT
 70
     1
  9
$DRAGMODE
 70
     2
  9
$LTSCALE
 40
1.0
  9
$OSMODE
 70
    37
  9
$ATTMODE
 70
     1
  9
$TEXTSIZE
 40
0.2
  9
$TRACEWID
 40
0.05
  9
$TEXTSTYLE
  7
STANDARD
  9
$CLAYER
  8
0
  9
$CELTYPE
  6
BYLAYER
  9
$CECOLOR
 62
   256
  9
$DIMSCALE
 40
1.0
  9
$DIMASZ
 40
0.18
  9
$DIMEXO
 40
0.0625
  9
$DIMDLI
 40
0.38
  9
$DIMRND
 40
0.0
  9
$DIMDLE
 40
0.0
  9
$DIMEXE
 40
0.18
  9
$DIMTP
 40
0.0
  9
$DIMTM
 40
0.0
  9
$DIMTXT
 40
0.18
  9
$DIMCEN
 40
0.09
  9
$DIMTSZ
 40
0.0
  9
$DIMTOL
 70
     0
  9
$DIMLIM
 70
     0
  9
$DIMTIH
 70
     1
  9
$DIMTOH
 70
     1
  9
$DIMSE1
 70
     0
  9
$DIMSE2
 70
     0
  9
$DIMTAD
 70
     0
  9
$DIMZIN
 70
     0
  9
$DIMBLK
  1

  9
$DIMASO
 70
     1
  9
$DIMSHO
 70
     1
  9
$DIMPOST
  1

  9
$DIMAPOST
  1

  9
$DIMALT
 70
     0
  9
$DIMALTD
 70
     3
  9
$DIMALTF
 40
0.0393700787401575
  9
$DIMLFAC
 40
1.0
  9
$DIMTOFL
 70
     0
  9
$DIMTVP
 40
0.0
  9
$DIMTIX
 70
     0
  9
$DIMSOXD
 70
     0
  9
$DIMSAH
 70
     0
  9
$DIMBLK1
  1

  9
$DIMBLK2
  1

  9
$DIMSTYLE
  2
STANDARD
  9
$DIMCLRD
 70
     0
  9
$DIMCLRE
 70
     0
  9
$DIMCLRT
 70
     0
  9
$DIMTFAC
 40
1.0
  9
$DIMGAP
 40
0.09
  9
$LUNITS
 70
     2
  9
$LUPREC
 70
     4
  9
$SKETCHINC
 40
0.1
  9
$FILLETRAD
 40
0.5
  9
$AUNITS
 70
     0
  9
$AUPREC
 70
     0
  9
$MENU
  1
.
  9
$ELEVATION
 40
0.0
  9
$PELEVATION
 40
0.0
  9
$THICKNESS
 40
0.0
  9
$LIMCHECK
 70
     0
  9
$CHAMFERA
 40
0.0
  9
$CHAMFERB
 40
0.0
  9
$SKPOLY
 70
     0
  9
$TDCREATE
 40
2460319.978721609
  9
$TDUPDATE
 40
2460319.978722141
  9
$TDINDWG
 40
0.0000000116
  9
$TDUSRTIMER
 40
0.0000000116
  9
$USRTIMER
 70
     1
  9
$ANGBASE
 50
0.0
  9
$ANGDIR
 70
     0
  9
$PDMODE
 70
     0
  9
$PDSIZE
 40
0.0
  9
$PLINEWID
 40
0.0
  9
$COORDS
 70
     1
  9
$SPLFRAME
 70
     0
  9
$SPLINETYPE
 70
     6
  9
$SPLINESEGS
 70
     8
  9
$ATTDIA
 70
     0
  9
$ATTREQ
 70
     1
  9
$HANDLING
 70
     1
  9
$SURFTAB1
 70
     6
  9
$SURFTAB2
 70
     6
  9
$SURFTYPE
 70
     6
  9
$SURFU
 70
     6
  9
$SURFV
 70
     6
  9
$UCSNAME
  2

  9
$UCSORG
 10
0.0
 20
0.0
 30
0.0
  9
$UCSXDIR
 10
1.0
 20
0.0
 30
0.0
  9
$UCSYDIR
 10
0.0
 20
1.0
 30
0.0
  9
$PUCSNAME
  2

  9
$PUCSORG
 10
0.0
 20
0.0
 30
0.0
  9
$PUCSXDIR
 10
1.0
 20
0.0
 30
0.0
  9
$PUCSYDIR
 10
0.0
 20
1.0
 30
0.0
  9
$USERI1
 70
     0
  9
$USERI2
 70
     0
  9
$USERI3
 70
     0
  9
$USERI4
 70
     0
  9
$USERI5
 70
     0
  9
$USERR1
 40
0.0
  9
$USERR2
 40
0.0
  9
$USERR3
 40
0.0
  9
$USERR4
 40
0.0
  9
$USERR5
 40
0.0
  9
$WORLDVIEW
 70
     1
  9
$SHADEDGE
 70
     3
  9
$SHADEDIF
 70
    70
  9
$TILEMODE
 70
     1
  9
$MAXACTVP
 70
    64
  9
$PLIMCHECK
 70
     0
  9
$PEXTMIN
 10
1.000000000000000E+20
 20
1.000000000000000E+20
 30
1.000000000000000E+20
  9
$PEXTMAX
 10
-1.000000000000000E+20
 20
-1.000000000000000E+20
 30
-1.000000000000000E+20
  9
$PLIMMIN
 10
0.0
 20
0.0
  9
$PLIMMAX
 10
12.0
 20
9.0
  9
$UNITMODE
 70
     0
  9
$VISRETAIN
 70
     1
  9
$PLINEGEN
 70
     0
  9
$PSLTSCALE
 70
     1
  0
ENDSEC
  0
SECTION
  2
TABLES
  0
TABLE
  2
VPORT
 70
     1
  0
VPORT
  2
*ACTIVE
 70
     0
 10
0.0
 20
0.0
 11
1.0
 21
1.0
 12
10.42990654205607
 22
4.5
 13
0.0
 23
0.0
 14
0.5
 24
0.5
 15
0.5
 25
0.5
 16
0.0
 26
0.0
 36
1.0
 17
0.0
 27
0.0
 37
0.0
 40
9.0
 41
1.972972972850329
 42
50.0
 43
0.0
 44
0.0
 50
0.0
 51
0.0
 71
     0
 72
   100
 73
     1
 74
     3
 75
     0
 76
     0
 77
     0
 78
     0
  0
ENDTAB
  0
TABLE
  2
LTYPE
 70
    25
  0
LTYPE
  2
CONTINUOUS
 70
     0
  3
Solid line
 72
    65
 73
     0
 40
0.0
  0
LTYPE
  2
BORDER
 70
     0
  3
__ __ . __ __ . __ __ . __ __ . __ __ . __ __ .
 72
    65
 73
     6
 40
8.75
 49
2.5
 49
-1.25
 49
2.5
 49
-1.25
 49
0.0
 49
-1.25
  0
LTYPE
  2
CENTER
 70
     0
  3
____ _ ____ _ ____ _ ____ _ ____ _ ____ _ ____ 
 72
    65
 73
     4
 40
10.0
 49
6.25
 49
-1.25
 49
1.25
 49
-1.25
  0
LTYPE
  2
DASHDOT
 70
     0
  3
__ . __ . __ . __ . __ . __ . __ . __ . __ . __
 72
    65
 73
     4
 40
5.0
 49
2.5
 49
-1.25
 49
0.0
 49
-1.25
  0
LTYPE
  2
DASHED
 70
     0
  3
__ __ __ __ __ __ __ __ __ __ __ __ __ __ __ __
 72
    65
 73
     2
 40
3.75
 49
2.5
 49
-1.25
  0
LTYPE
  2
DIVIDE
 70
     0
  3
____ . . ____ . . ____ . . ____ . . ____ . . __
 72
    65
 73
     6
 40
6.25
 49
2.5
 49
-1.25
 49
0.0
 49
-1.25
 49
0.0
 49
-1.25
  0
LTYPE
  2
DOT
 70
     0
  3
. . . . . . . . . . . . . . . . . . . . . . . .
 72
    65
 73
     2
 40
1.25
 49
0.0
 49
-1.25
  0
LTYPE
  2
HIDDEN
 70
     0
  3
__ __ __ __ __ __ __ __ __ __ __ __ __ __ __ __
 72
    65
 73
     2
 40
1.875
 49
1.25
 49
-0.625
  0
LTYPE
  2
PHANTOM
 70
     0
  3
______  __  __  ______  __  __  ______  __  __ 
 72
    65
 73
     6
 40
12.5
 49
6.25
 49
-1.25
 49
1.25
 49
-1.25
 49
1.25
 49
-1.25
  0
LTYPE
  2
BORDER2
 70
     0
  3
__.__.__.__.__.__.__.__.__.__.__.__.__.__.__.__
 72
    65
 73
     2
 40
2.5
 49
2.5
 49
0.0
  0
LTYPE
  2
BORDERX2
 70
     0
  3
____ ____ . ____ ____ . ____ ____ . ____ ____ .
 72
    65
 73
     6
 40
13.75
 49
5.0
 49
-1.25
 49
5.0
 49
-1.25
 49
0.0
 49
-1.25
  0
LTYPE
  2
CENTER2
 70
     0
  3
___ _ ___ _ ___ _ ___ _ ___ _ ___ _ ___ _ ___ _
 72
    65
 73
     4
 40
8.4
 49
4.65
 49
-1.25
 49
1.25
 49
-1.25
  0
LTYPE
  2
CENTERX2
 70
     0
  3
_________ _ _________ _ _________ _ _________ _
 72
    65
 73
     4
 40
16.8
 49
13.05
 49
-1.25
 49
1.25
 49
-1.25
  0
LTYPE
  2
DASHDOT2
 70
     0
  3
_ . _ . _ . _ . _ . _ . _ . _ . _ . _ . _ . _ .
 72
    65
 73
     4
 40
3.75
 49
1.25
 49
-1.25
 49
0.0
 49
-1.25
  0
LTYPE
  2
DASHDOTX2
 70
     0
  3
________ . ________ . ________ . ________ . ___
 72
    65
 73
     4
 40
12.5
 49
10.0
 49
-1.25
 49
0.0
 49
-1.25
  0
LTYPE
  2
DASHED2
 70
     0
  3
_ _ _ _ _ _ _ _ _ _ _ _ _ _ _ _ _ _ _ _ _ _ _ _
 72
    65
 73
     2
 40
2.5
 49
1.25
 49
-1.25
  0
LTYPE
  2
DASHEDX2
 70
     0
  3
____ ____ ____ ____ ____ ____ ____ ____ ____ __
 72
    65
 73
     4
 40
2.5
 49
10.0
 49
-1.25
 49
0.0
 49
-1.25
  0
LTYPE
  2
DIVIDE2
 70
     0
  3
_ _ . . _ _ . . _ _ . . _ _ . . _ _ . . _ _ . .
 72
    65
 73
     8
 40
7.5
 49
1.25
 49
-1.25
 49
1.25
 49
-1.25
 49
0.0
 49
-1.25
 49
0.0
 49
-1.25
  0
LTYPE
  2
DIVIDEX2
 70
     0
  3
________________ . . ________________ . . _____
 72
    65
 73
     7
 40
13.75
 49
0.625
 49
10.0
 49
-1.25
 49
0.0
 49
-1.25
 49
0.0
 49
-1.25
  0
LTYPE
  2
DOT2
 70
     0
  3
...............................................
 72
    65
 73
     2
 40
0.625
 49
0.0
 49
-0.625
  0
LTYPE
  2
DOTX2
 70
     0
  3
.  .  .  .  .  .  .  .  .  .  .  .  .  .  .  . 
 72
    65
 73
     2
 40
2.5
 49
0.0
 49
-2.5
  0
LTYPE
  2
HIDDEN2
 70
     0
  3
_ _ _ _ _ _ _ _ _ _ _ _ _ _ _ _ _ _ _ _ _ _ _ _
 72
    65
 73
     2
 40
1.25
 49
0.625
 49
-0.625
  0
LTYPE
  2
HIDDENX2
 70
     0
  3
____ ____ ____ ____ ____ ____ ____ ____ ____ __
 72
    65
 73
     2
 40
3.125
 49
2.5
 49
-0.625
  0
LTYPE
  2
PHANTOM2
 70
     0
  3
___  __  __  ___  __  __  ___  __  __ ___  __  
 72
    65
 73
     6
 40
9.375
 49
3.125
 49
-1.25
 49
1.25
 49
-1.25
 49
1.25
 49
-1.25
  0
LTYPE
  2
PHANTOMX2
 70
     0
  3
____________  __  __  ____________  __  __  ___
 72
    65
 73
     6
 40
18.75
 49
12.5
 49
-1.25
 49
1.25
 49
-1.25
 49
1.25
 49
-1.25
  0
ENDTAB
  0
TABLE
  2
LAYER
 70
     4
  0
LAYER
  2
0
 70
     0
 62
     7
  6
CONTINUOUS
  0
LAYER
  2
1
 70
     0
 62
     7
  6
CONTINUOUS
  0
LAYER
  2
2
 70
     0
 62
     7
  6
CONTINUOUS
  0
LAYER
  2
3
 70
     0
 62
     7
  6
CONTINUOUS
  0
ENDTAB
  0
TABLE
  2
STYLE
 70
     2
  0
STYLE
  2
STANDARD
 70
     0
 40
0.0
 41
1.0
 50
0.0
 71
     0
 42
0.2
  3
txt
  4

  0
STYLE
  2
EXCESS_STANDARD
 70
     0
 40
0.2
 41
1.0
 50
0.0
 71
     0
 42
0.2
  3
txt
  4
BIGFONT
  0
ENDTAB
  0
TABLE
  2
VIEW
 70
     0
  0
ENDTAB
  0
TABLE
  2
UCS
 70
     0
  0
ENDTAB
  0
TABLE
  2
APPID
 70
     1
  0
APPID
  2
ACAD
 70
     0
  0
ENDTAB
  0
TABLE
  2
DIMSTYLE
 70
     2
  0
DIMSTYLE
  2
STANDARD
 70
     0
  3

  4

  5

  6

  7

 40
1.0
 41
0.18
 42
0.0625
 43
0.38
 44
0.18
 45
0.0
 46
0.0
 47
0.0
 48
0.0
140
0.18
141
0.09
142
0.0
143
25.4
144
1.0
145
0.0
146
1.0
147
0.09
 71
     0
 72
     0
 73
     1
 74
     1
 75
     0
 76
     0
 77
     0
 78
     0
170
     0
171
     2
172
     0
173
     0
174
     0
175
     0
176
     0
177
     0
178
     0
  0
DIMSTYLE
  2
ISO-25
 70
     0
  3

  4

  5

  6

  7

 40
1.0
 41
1.75
 42
0.3
 43
4.5
 44
0.18
 45
0.0
 46
0.0
 47
0.0
 48
0.0
140
2.5
141
0.09
142
0.0
143
25.4
144
1.0
145
0.0
146
0.5
147
0.2
 71
     0
 72
     0
 73
     1
 74
     1
 75
     0
 76
     0
 77
     1
 78
     0
170
     0
171
     2
172
     0
173
     0
174
     0
175
     0
176
     0
177
     0
178
     0
  0
ENDTAB
  0
ENDSEC
  0
SECTION
  2
BLOCKS
  0
BLOCK
  8
0
  2
$MODEL_SPACE
 70
     0
 10
0.0
 20
0.0
 30
0.0
  3
$MODEL_SPACE
  1

  0
ENDBLK
  8
0
  0
BLOCK
 67
     1
  8
0
  2
$PAPER_SPACE
 70
     0
 10
0.0
 20
0.0
 30
0.0
  3
$PAPER_SPACE
  1

  0
ENDBLK
 67
     1
  8
0
  0
BLOCK
  8
0
  2
0-NONE
 70
     0
 10
0.0
 20
0.0
 30
0.0
  3
0-NONE
  1

  0
POLYLINE
  8
1
  6
CONTINUOUS
 62
     2
 66
     1
 10
0.0
 20
0.0
 30
0.0
  0
VERTEX
  8
1
  6
CONTINUOUS
 62
     2
 10
-190.0
 20
-135.0
 30
0.0
  0
VERTEX
  8
1
  6
CONTINUOUS
 62
     2
 10
-190.0
 20
135.0
 30
0.0
  0
VERTEX
  8
1
  6
CONTINUOUS
 62
     2
 10
0.0
 20
135.0
 30
0.0
  0
VERTEX
  8
1
  6
CONTINUOUS
 62
     2
 10
0.0
 20
134.0
 30
0.0
  0
VERTEX
  8
1
  6
CONTINUOUS
 62
     2
 10
0.0
 20
135.0
 30
0.0
  0
VERTEX
  8
1
  6
CONTINUOUS
 62
     2
 10
190.0
 20
135.0
 30
0.0
  0
VERTEX
  8
1
  6
CONTINUOUS
 62
     2
 10
190.0
 20
-135.0
 30
0.0
  0
VERTEX
  8
1
  6
CONTINUOUS
 62
     2
 10
-190.0
 20
-135.0
 30
0.0
  0
SEQEND
  8
1
  6
CONTINUOUS
 62
     2
  0
LINE
  8
1
  6
BORDER
 62
     4
 10
-232.6331570010153
 20
100.1274480007393
 30
0.0
 11
-232.6331570010153
 21
121.0201739999999
 31
0.0
  0
POLYLINE
  8
1
  6
CONTINUOUS
 62
     7
 66
     1
 10
0.0
 20
0.0
 30
0.0
  0
VERTEX
  8
1
  6
CONTINUOUS
 62
     7
 10
-235.5331570010153
 20
119.020174000706
 30
0.0
  0
VERTEX
  8
1
  6
CONTINUOUS
 62
     7
 10
-229.7331570010153
 20
119.020174000706
 30
0.0
  0
VERTEX
  8
1
  6
CONTINUOUS
 62
     7
 10
-229.7331570010153
 20
102.1274480003077
 30
0.0
  0
VERTEX
  8
1
  6
CONTINUOUS
 62
     7
 10
-235.5331570010153
 20
102.1274480003077
 30
0.0
  0
VERTEX
  8
1
  6
CONTINUOUS
 62
     7
 10
-235.5331570010153
 20
119.020174000706
 30
0.0
  0
SEQEND
  8
1
  6
CONTINUOUS
 62
     7
  0
POLYLINE
  8
1
  6
DASHDOT
 62
     1
 66
     1
 10
0.0
 20
0.0
 30
0.0
  0
VERTEX
  8
1
  6
DASHDOT
 62
     1
 10
-105.7239170000001
 20
22.40009699999999
 30
0.0
  0
VERTEX
  8
1
  6
DASHDOT
 62
     1
 10
-99.65225000000007
 20
22.40009699999999
 30
0.0
  0
VERTEX
  8
1
  6
DASHDOT
 62
     1
 10
-99.65225000000007
 20
18.75709699999996
 30
0.0
  0
VERTEX
  8
1
  6
DASHDOT
 62
     1
 10
-105.7239170000001
 20
18.75709699999996
 30
0.0
  0
VERTEX
  8
1
  6
DASHDOT
 62
     1
 10
-105.7239170000001
 20
22.40009699999999
 30
0.0
  0
SEQEND
  8
1
  6
DASHDOT
 62
     1
  0
POLYLINE
  8
1
  6
DASHDOT
 62
     1
 66
     1
 10
0.0
 20
0.0
 30
0.0
  0
VERTEX
  8
1
  6
DASHDOT
 62
     1
 10
-83.22326000000001
 20
23.29636099999996
 30
0.0
  0
VERTEX
  8
1
  6
DASHDOT
 62
     1
 10
-75.39992700000002
 20
23.29636099999996
 30
0.0
  0
VERTEX
  8
1
  6
DASHDOT
 62
     1
 10
-75.39992700000002
 20
18.86044999999999
 30
0.0
  0
VERTEX
  8
1
  6
DASHDOT
 62
     1
 10
-83.22326000000001
 20
18.86044999999999
 30
0.0
  0
VERTEX
  8
1
  6
DASHDOT
 62
     1
 10
-83.22326000000001
 20
23.29636099999996
 30
0.0
  0
SEQEND
  8
1
  6
DASHDOT
 62
     1
  0
LINE
  8
1
  6
DOT
 62
     7
 10
-67.40924100041549
 20
-22.37991799923279
 30
0.0
 11
-67.40924100041549
 21
-2.379918000000032
 31
0.0
  0
LINE
  8
1
  6
DOT
 62
     7
 10
-75.8092410004155
 20
-22.3799180018344
 30
0.0
 11
-75.8092410004155
 21
-2.379918000000032
 31
0.0
  0
LINE
  8
1
  6
DOT
 62
     7
 10
-75.8092410004155
 20
-22.37991799923279
 30
0.0
 11
-75.8092410004155
 21
-2.379918000000032
 31
0.0
  0
POLYLINE
  8
1
  6
CONTINUOUS
 62
     7
 66
     1
 10
0.0
 20
0.0
 30
0.0
  0
VERTEX
  8
1
  6
CONTINUOUS
 62
     7
 10
-97.08704700101538
 20
17.35386799996709
 30
0.0
  0
VERTEX
  8
1
  6
CONTINUOUS
 62
     7
 10
-91.28704700101537
 20
17.35386799996709
 30
0.0
  0
VERTEX
  8
1
  6
CONTINUOUS
 62
     7
 10
-91.28704700101537
 20
0.4611419995686958
 30
0.0
  0
VERTEX
  8
1
  6
CONTINUOUS
 62
     7
 10
-97.08704700101538
 20
0.4611419995686958
 30
0.0
  0
VERTEX
  8
1
  6
CONTINUOUS
 62
     7
 10
-97.08704700101538
 20
17.35386799996709
 30
0.0
  0
SEQEND
  8
1
  6
CONTINUOUS
 62
     7
  0
POLYLINE
  8
1
  6
CONTINUOUS
 62
     7
 66
     1
 10
0.0
 20
0.0
 30
0.0
  0
VERTEX
  8
1
  6
CONTINUOUS
 62
     7
 10
-75.5092410004155
 20
17.35386799996709
 30
0.0
  0
VERTEX
  8
1
  6
CONTINUOUS
 62
     7
 10
-67.70924100041549
 20
17.35386799996709
 30
0.0
  0
VERTEX
  8
1
  6
CONTINUOUS
 62
     7
 10
-67.70924100041549
 20
0.4611419995686958
 30
0.0
  0
VERTEX
  8
1
  6
CONTINUOUS
 62
     7
 10
-75.5092410004155
 20
0.4611419995686958
 30
0.0
  0
VERTEX
  8
1
  6
CONTINUOUS
 62
     7
 10
-75.5092410004155
 20
17.35386799996709
 30
0.0
  0
SEQEND
  8
1
  6
CONTINUOUS
 62
     7
  0
POLYLINE
  8
1
  6
CONTINUOUS
 62
     7
 66
     1
 10
0.0
 20
0.0
 30
0.0
  0
VERTEX
  8
1
  6
CONTINUOUS
 62
     7
 10
-55.68308700074508
 20
17.35386799996709
 30
0.0
  0
VERTEX
  8
1
  6
CONTINUOUS
 62
     7
 10
-45.88308700037251
 20
17.35386799996709
 30
0.0
  0
VERTEX
  8
1
  6
CONTINUOUS
 62
     7
 10
-45.88308700037251
 20
0.4611419995686958
 30
0.0
  0
VERTEX
  8
1
  6
CONTINUOUS
 62
     7
 10
-55.68308700074508
 20
0.4611419995686958
 30
0.0
  0
VERTEX
  8
1
  6
CONTINUOUS
 62
     7
 10
-55.68308700074508
 20
17.35386799996709
 30
0.0
  0
SEQEND
  8
1
  6
CONTINUOUS
 62
     7
  0
POLYLINE
  8
1
  6
DOT
 62
     7
 66
     1
 10
0.0
 20
0.0
 30
0.0
  0
VERTEX
  8
1
  6
DOT
 62
     7
 10
-55.98308700074506
 20
-2.379917999971752
 30
0.0
  0
VERTEX
  8
1
  6
DOT
 62
     7
 10
-45.5830870014901
 20
-2.379917999971752
 30
0.0
  0
VERTEX
  8
1
  6
DOT
 62
     7
 10
-45.5830870014901
 20
-22.37991799923279
 30
0.0
  0
VERTEX
  8
1
  6
DOT
 62
     7
 10
-55.98308700074506
 20
-22.37991799923279
 30
0.0
  0
VERTEX
  8
1
  6
DOT
 62
     7
 10
-55.98308700074506
 20
-2.379917999971752
 30
0.0
  0
SEQEND
  8
1
  6
DOT
 62
     7
  0
POLYLINE
  8
1
  6
CONTINUOUS
 62
     7
 66
     1
 10
0.0
 20
0.0
 30
0.0
  0
VERTEX
  8
1
  6
CONTINUOUS
 62
     7
 10
-60.28308700104188
 20
-2.379917999971752
 30
0.0
  0
VERTEX
  8
1
  6
CONTINUOUS
 62
     7
 10
-41.28308700104188
 20
-2.379917999971752
 30
0.0
  0
VERTEX
  8
1
  6
CONTINUOUS
 62
     7
 10
-41.28308700104188
 20
-22.37991799997175
 30
0.0
  0
VERTEX
  8
1
  6
CONTINUOUS
 62
     7
 10
-60.28308700104188
 20
-22.37991799997175
 30
0.0
  0
VERTEX
  8
1
  6
CONTINUOUS
 62
     7
 10
-60.28308700104188
 20
-2.379917999971752
 30
0.0
  0
SEQEND
  8
1
  6
CONTINUOUS
 62
     7
  0
POLYLINE
  8
1
  6
DASHDOT
 62
     1
 66
     1
 10
0.0
 20
0.0
 30
0.0
  0
VERTEX
  8
1
  6
DASHDOT
 62
     1
 10
-63.62799000000001
 20
25.39853499999997
 30
0.0
  0
VERTEX
  8
1
  6
DASHDOT
 62
     1
 10
-55.80465700000002
 20
25.39853499999997
 30
0.0
  0
VERTEX
  8
1
  6
DASHDOT
 62
     1
 10
-55.80465700000002
 20
20.96262399999999
 30
0.0
  0
VERTEX
  8
1
  6
DASHDOT
 62
     1
 10
-63.62799000000001
 20
20.96262399999999
 30
0.0
  0
VERTEX
  8
1
  6
DASHDOT
 62
     1
 10
-63.62799000000001
 20
25.39853499999997
 30
0.0
  0
SEQEND
  8
1
  6
DASHDOT
 62
     1
  0
POLYLINE
  8
1
  6
CONTINUOUS
 62
     3
 66
     1
 10
0.0
 20
0.0
 30
0.0
  0
VERTEX
  8
1
  6
CONTINUOUS
 62
     3
 10
-46.6830870005588
 20
0.4611419995686958
 30
0.0
  0
VERTEX
  8
1
  6
CONTINUOUS
 62
     3
 10
-45.8830869988067
 20
-0.0007382168062975
 30
0.0
  0
VERTEX
  8
1
  6
CONTINUOUS
 62
     3
 10
-45.88308700037251
 20
0.9230222159436892
 30
0.0
  0
VERTEX
  8
1
  6
CONTINUOUS
 62
     3
 10
-46.68308700327705
 20
0.4611419986373733
 30
0.0
  0
SEQEND
  8
1
  6
CONTINUOUS
 62
     3
  0
POLYLINE
  8
1
  6
CONTINUOUS
 62
     3
 66
     1
 10
0.0
 20
0.0
 30
0.0
  0
VERTEX
  8
1
  6
CONTINUOUS
 62
     3
 10
-46.68308699784055
 20
1.961142000500018
 30
0.0
  0
VERTEX
  8
1
  6
CONTINUOUS
 62
     3
 10
-45.88308699608845
 20
1.499261784125025
 30
0.0
  0
VERTEX
  8
1
  6
CONTINUOUS
 62
     3
 10
-45.88308699765426
 20
2.423022216875012
 30
0.0
  0
VERTEX
  8
1
  6
CONTINUOUS
 62
     3
 10
-46.6830870005588
 20
1.961141999568696
 30
0.0
  0
SEQEND
  8
1
  6
CONTINUOUS
 62
     3
  0
POLYLINE
  8
1
  6
CONTINUOUS
 62
     3
 66
     1
 10
0.0
 20
0.0
 30
0.0
  0
VERTEX
  8
1
  6
CONTINUOUS
 62
     3
 10
-46.6830869951223
 20
3.461142001431341
 30
0.0
  0
VERTEX
  8
1
  6
CONTINUOUS
 62
     3
 10
-45.8830869933702
 20
2.999261785056348
 30
0.0
  0
VERTEX
  8
1
  6
CONTINUOUS
 62
     3
 10
-45.88308699493601
 20
3.923022217806334
 30
0.0
  0
VERTEX
  8
1
  6
CONTINUOUS
 62
     3
 10
-46.68308699784055
 20
3.461142000500018
 30
0.0
  0
SEQEND
  8
1
  6
CONTINUOUS
 62
     3
  0
POLYLINE
  8
1
  6
CONTINUOUS
 62
     3
 66
     1
 10
0.0
 20
0.0
 30
0.0
  0
VERTEX
  8
1
  6
CONTINUOUS
 62
     3
 10
-46.68308699240404
 20
4.961142002362664
 30
0.0
  0
VERTEX
  8
1
  6
CONTINUOUS
 62
     3
 10
-45.88308699065195
 20
4.49926178598767
 30
0.0
  0
VERTEX
  8
1
  6
CONTINUOUS
 62
     3
 10
-45.88308699221776
 20
5.423022218737657
 30
0.0
  0
VERTEX
  8
1
  6
CONTINUOUS
 62
     3
 10
-46.6830869951223
 20
4.961142001431341
 30
0.0
  0
SEQEND
  8
1
  6
CONTINUOUS
 62
     3
  0
POLYLINE
  8
1
  6
CONTINUOUS
 62
     3
 66
     1
 10
0.0
 20
0.0
 30
0.0
  0
VERTEX
  8
1
  6
CONTINUOUS
 62
     3
 10
-46.68308698968579
 20
6.461142003293986
 30
0.0
  0
VERTEX
  8
1
  6
CONTINUOUS
 62
     3
 10
-45.88308698793369
 20
5.999261786918993
 30
0.0
  0
VERTEX
  8
1
  6
CONTINUOUS
 62
     3
 10
-45.8830869894995
 20
6.923022219668979
 30
0.0
  0
VERTEX
  8
1
  6
CONTINUOUS
 62
     3
 10
-46.68308699240404
 20
6.461142002362664
 30
0.0
  0
SEQEND
  8
1
  6
CONTINUOUS
 62
     3
  0
POLYLINE
  8
1
  6
CONTINUOUS
 62
     3
 66
     1
 10
0.0
 20
0.0
 30
0.0
  0
VERTEX
  8
1
  6
CONTINUOUS
 62
     3
 10
-46.68308698696754
 20
7.961142004225309
 30
0.0
  0
VERTEX
  8
1
  6
CONTINUOUS
 62
     3
 10
-45.88308698521544
 20
7.499261787850315
 30
0.0
  0
VERTEX
  8
1
  6
CONTINUOUS
 62
     3
 10
-45.88308698678125
 20
8.423022220600302
 30
0.0
  0
VERTEX
  8
1
  6
CONTINUOUS
 62
     3
 10
-46.68308698968579
 20
7.961142003293986
 30
0.0
  0
SEQEND
  8
1
  6
CONTINUOUS
 62
     3
  0
POLYLINE
  8
1
  6
CONTINUOUS
 62
     3
 66
     1
 10
0.0
 20
0.0
 30
0.0
  0
VERTEX
  8
1
  6
CONTINUOUS
 62
     3
 10
-46.68308698424929
 20
9.461142005156631
 30
0.0
  0
VERTEX
  8
1
  6
CONTINUOUS
 62
     3
 10
-45.88308698249719
 20
8.999261788781638
 30
0.0
  0
VERTEX
  8
1
  6
CONTINUOUS
 62
     3
 10
-45.883086984063
 20
9.923022221531625
 30
0.0
  0
VERTEX
  8
1
  6
CONTINUOUS
 62
     3
 10
-46.68308698696754
 20
9.461142004225309
 30
0.0
  0
SEQEND
  8
1
  6
CONTINUOUS
 62
     3
  0
POLYLINE
  8
1
  6
CONTINUOUS
 62
     3
 66
     1
 10
0.0
 20
0.0
 30
0.0
  0
VERTEX
  8
1
  6
CONTINUOUS
 62
     3
 10
-46.68308698153103
 20
10.96114200608795
 30
0.0
  0
VERTEX
  8
1
  6
CONTINUOUS
 62
     3
 10
-45.88308697977894
 20
10.49926178971296
 30
0.0
  0
VERTEX
  8
1
  6
CONTINUOUS
 62
     3
 10
-45.88308698134475
 20
11.42302222246295
 30
0.0
  0
VERTEX
  8
1
  6
CONTINUOUS
 62
     3
 10
-46.68308698424929
 20
10.96114200515663
 30
0.0
  0
SEQEND
  8
1
  6
CONTINUOUS
 62
     3
  0
POLYLINE
  8
1
  6
CONTINUOUS
 62
     3
 66
     1
 10
0.0
 20
0.0
 30
0.0
  0
VERTEX
  8
1
  6
CONTINUOUS
 62
     3
 10
-46.68308697881278
 20
12.46114200701928
 30
0.0
  0
VERTEX
  8
1
  6
CONTINUOUS
 62
     3
 10
-45.88308697706069
 20
11.99926179064428
 30
0.0
  0
VERTEX
  8
1
  6
CONTINUOUS
 62
     3
 10
-45.88308697862649
 20
12.92302222339427
 30
0.0
  0
VERTEX
  8
1
  6
CONTINUOUS
 62
     3
 10
-46.68308698153103
 20
12.46114200608795
 30
0.0
  0
SEQEND
  8
1
  6
CONTINUOUS
 62
     3
  0
POLYLINE
  8
1
  6
CONTINUOUS
 62
     3
 66
     1
 10
0.0
 20
0.0
 30
0.0
  0
VERTEX
  8
1
  6
CONTINUOUS
 62
     3
 10
-46.68308697609453
 20
13.9611420079506
 30
0.0
  0
VERTEX
  8
1
  6
CONTINUOUS
 62
     3
 10
-45.88308697434243
 20
13.49926179157561
 30
0.0
  0
VERTEX
  8
1
  6
CONTINUOUS
 62
     3
 10
-45.88308697590824
 20
14.42302222432559
 30
0.0
  0
VERTEX
  8
1
  6
CONTINUOUS
 62
     3
 10
-46.68308697881278
 20
13.96114200701928
 30
0.0
  0
SEQEND
  8
1
  6
CONTINUOUS
 62
     3
  0
POLYLINE
  8
1
  6
CONTINUOUS
 62
     3
 66
     1
 10
0.0
 20
0.0
 30
0.0
  0
VERTEX
  8
1
  6
CONTINUOUS
 62
     3
 10
-46.68308697337628
 20
15.46114200888192
 30
0.0
  0
VERTEX
  8
1
  6
CONTINUOUS
 62
     3
 10
-45.88308697162418
 20
14.99926179250693
 30
0.0
  0
VERTEX
  8
1
  6
CONTINUOUS
 62
     3
 10
-45.88308697318999
 20
15.92302222525691
 30
0.0
  0
VERTEX
  8
1
  6
CONTINUOUS
 62
     3
 10
-46.68308697609453
 20
15.4611420079506
 30
0.0
  0
SEQEND
  8
1
  6
CONTINUOUS
 62
     3
  0
POLYLINE
  8
1
  6
CONTINUOUS
 62
     3
 66
     1
 10
0.0
 20
0.0
 30
0.0
  0
VERTEX
  8
1
  6
CONTINUOUS
 62
     3
 10
-46.68308697065802
 20
16.96114200981324
 30
0.0
  0
VERTEX
  8
1
  6
CONTINUOUS
 62
     3
 10
-45.88308696890593
 20
16.49926179343825
 30
0.0
  0
VERTEX
  8
1
  6
CONTINUOUS
 62
     3
 10
-45.88308697047174
 20
17.42302222618824
 30
0.0
  0
VERTEX
  8
1
  6
CONTINUOUS
 62
     3
 10
-46.68308697337628
 20
16.96114200888192
 30
0.0
  0
SEQEND
  8
1
  6
CONTINUOUS
 62
     3
  0
POLYLINE
  8
1
  6
CONTINUOUS
 62
     3
 66
     1
 10
0.0
 20
0.0
 30
0.0
  0
VERTEX
  8
1
  6
CONTINUOUS
 62
     3
 10
-54.88308700055879
 20
0.4611419995686958
 30
0.0
  0
VERTEX
  8
1
  6
CONTINUOUS
 62
     3
 10
-55.68308700231088
 20
-0.0007382168062975
 30
0.0
  0
VERTEX
  8
1
  6
CONTINUOUS
 62
     3
 10
-55.68308700074508
 20
0.9230222159436892
 30
0.0
  0
VERTEX
  8
1
  6
CONTINUOUS
 62
     3
 10
-54.88308699784054
 20
0.4611419986373733
 30
0.0
  0
SEQEND
  8
1
  6
CONTINUOUS
 62
     3
  0
POLYLINE
  8
1
  6
CONTINUOUS
 62
     3
 66
     1
 10
0.0
 20
0.0
 30
0.0
  0
VERTEX
  8
1
  6
CONTINUOUS
 62
     3
 10
-54.88308700327704
 20
1.961142000500018
 30
0.0
  0
VERTEX
  8
1
  6
CONTINUOUS
 62
     3
 10
-55.68308700502914
 20
1.499261784125025
 30
0.0
  0
VERTEX
  8
1
  6
CONTINUOUS
 62
     3
 10
-55.68308700346333
 20
2.423022216875012
 30
0.0
  0
VERTEX
  8
1
  6
CONTINUOUS
 62
     3
 10
-54.88308700055879
 20
1.961141999568696
 30
0.0
  0
SEQEND
  8
1
  6
CONTINUOUS
 62
     3
  0
POLYLINE
  8
1
  6
CONTINUOUS
 62
     3
 66
     1
 10
0.0
 20
0.0
 30
0.0
  0
VERTEX
  8
1
  6
CONTINUOUS
 62
     3
 10
-54.88308700599529
 20
3.461142001431341
 30
0.0
  0
VERTEX
  8
1
  6
CONTINUOUS
 62
     3
 10
-55.68308700774739
 20
2.999261785056348
 30
0.0
  0
VERTEX
  8
1
  6
CONTINUOUS
 62
     3
 10
-55.68308700618158
 20
3.923022217806334
 30
0.0
  0
VERTEX
  8
1
  6
CONTINUOUS
 62
     3
 10
-54.88308700327704
 20
3.461142000500018
 30
0.0
  0
SEQEND
  8
1
  6
CONTINUOUS
 62
     3
  0
POLYLINE
  8
1
  6
CONTINUOUS
 62
     3
 66
     1
 10
0.0
 20
0.0
 30
0.0
  0
VERTEX
  8
1
  6
CONTINUOUS
 62
     3
 10
-54.88308700871355
 20
4.961142002362664
 30
0.0
  0
VERTEX
  8
1
  6
CONTINUOUS
 62
     3
 10
-55.68308701046564
 20
4.49926178598767
 30
0.0
  0
VERTEX
  8
1
  6
CONTINUOUS
 62
     3
 10
-55.68308700889983
 20
5.423022218737657
 30
0.0
  0
VERTEX
  8
1
  6
CONTINUOUS
 62
     3
 10
-54.88308700599529
 20
4.961142001431341
 30
0.0
  0
SEQEND
  8
1
  6
CONTINUOUS
 62
     3
  0
POLYLINE
  8
1
  6
CONTINUOUS
 62
     3
 66
     1
 10
0.0
 20
0.0
 30
0.0
  0
VERTEX
  8
1
  6
CONTINUOUS
 62
     3
 10
-54.8830870114318
 20
6.461142003293986
 30
0.0
  0
VERTEX
  8
1
  6
CONTINUOUS
 62
     3
 10
-55.68308701318389
 20
5.999261786918993
 30
0.0
  0
VERTEX
  8
1
  6
CONTINUOUS
 62
     3
 10
-55.68308701161808
 20
6.923022219668979
 30
0.0
  0
VERTEX
  8
1
  6
CONTINUOUS
 62
     3
 10
-54.88308700871355
 20
6.461142002362664
 30
0.0
  0
SEQEND
  8
1
  6
CONTINUOUS
 62
     3
  0
POLYLINE
  8
1
  6
CONTINUOUS
 62
     3
 66
     1
 10
0.0
 20
0.0
 30
0.0
  0
VERTEX
  8
1
  6
CONTINUOUS
 62
     3
 10
-54.88308701415005
 20
7.961142004225309
 30
0.0
  0
VERTEX
  8
1
  6
CONTINUOUS
 62
     3
 10
-55.68308701590215
 20
7.499261787850315
 30
0.0
  0
VERTEX
  8
1
  6
CONTINUOUS
 62
     3
 10
-55.68308701433634
 20
8.423022220600302
 30
0.0
  0
VERTEX
  8
1
  6
CONTINUOUS
 62
     3
 10
-54.8830870114318
 20
7.961142003293986
 30
0.0
  0
SEQEND
  8
1
  6
CONTINUOUS
 62
     3
  0
POLYLINE
  8
1
  6
CONTINUOUS
 62
     3
 66
     1
 10
0.0
 20
0.0
 30
0.0
  0
VERTEX
  8
1
  6
CONTINUOUS
 62
     3
 10
-54.8830870168683
 20
9.461142005156631
 30
0.0
  0
VERTEX
  8
1
  6
CONTINUOUS
 62
     3
 10
-55.6830870186204
 20
8.999261788781638
 30
0.0
  0
VERTEX
  8
1
  6
CONTINUOUS
 62
     3
 10
-55.68308701705459
 20
9.923022221531625
 30
0.0
  0
VERTEX
  8
1
  6
CONTINUOUS
 62
     3
 10
-54.88308701415005
 20
9.461142004225309
 30
0.0
  0
SEQEND
  8
1
  6
CONTINUOUS
 62
     3
  0
POLYLINE
  8
1
  6
CONTINUOUS
 62
     3
 66
     1
 10
0.0
 20
0.0
 30
0.0
  0
VERTEX
  8
1
  6
CONTINUOUS
 62
     3
 10
-54.88308701958655
 20
10.96114200608795
 30
0.0
  0
VERTEX
  8
1
  6
CONTINUOUS
 62
     3
 10
-55.68308702133865
 20
10.49926178971296
 30
0.0
  0
VERTEX
  8
1
  6
CONTINUOUS
 62
     3
 10
-55.68308701977284
 20
11.42302222246295
 30
0.0
  0
VERTEX
  8
1
  6
CONTINUOUS
 62
     3
 10
-54.8830870168683
 20
10.96114200515663
 30
0.0
  0
SEQEND
  8
1
  6
CONTINUOUS
 62
     3
  0
POLYLINE
  8
1
  6
CONTINUOUS
 62
     3
 66
     1
 10
0.0
 20
0.0
 30
0.0
  0
VERTEX
  8
1
  6
CONTINUOUS
 62
     3
 10
-54.88308702230481
 20
12.46114200701928
 30
0.0
  0
VERTEX
  8
1
  6
CONTINUOUS
 62
     3
 10
-55.6830870240569
 20
11.99926179064428
 30
0.0
  0
VERTEX
  8
1
  6
CONTINUOUS
 62
     3
 10
-55.68308702249109
 20
12.92302222339427
 30
0.0
  0
VERTEX
  8
1
  6
CONTINUOUS
 62
     3
 10
-54.88308701958655
 20
12.46114200608795
 30
0.0
  0
SEQEND
  8
1
  6
CONTINUOUS
 62
     3
  0
POLYLINE
  8
1
  6
CONTINUOUS
 62
     3
 66
     1
 10
0.0
 20
0.0
 30
0.0
  0
VERTEX
  8
1
  6
CONTINUOUS
 62
     3
 10
-54.88308702502306
 20
13.9611420079506
 30
0.0
  0
VERTEX
  8
1
  6
CONTINUOUS
 62
     3
 10
-55.68308702677515
 20
13.49926179157561
 30
0.0
  0
VERTEX
  8
1
  6
CONTINUOUS
 62
     3
 10
-55.68308702520935
 20
14.42302222432559
 30
0.0
  0
VERTEX
  8
1
  6
CONTINUOUS
 62
     3
 10
-54.88308702230481
 20
13.96114200701928
 30
0.0
  0
SEQEND
  8
1
  6
CONTINUOUS
 62
     3
  0
POLYLINE
  8
1
  6
CONTINUOUS
 62
     3
 66
     1
 10
0.0
 20
0.0
 30
0.0
  0
VERTEX
  8
1
  6
CONTINUOUS
 62
     3
 10
-54.88308702774131
 20
15.46114200888192
 30
0.0
  0
VERTEX
  8
1
  6
CONTINUOUS
 62
     3
 10
-55.68308702949341
 20
14.99926179250693
 30
0.0
  0
VERTEX
  8
1
  6
CONTINUOUS
 62
     3
 10
-55.6830870279276
 20
15.92302222525691
 30
0.0
  0
VERTEX
  8
1
  6
CONTINUOUS
 62
     3
 10
-54.88308702502306
 20
15.4611420079506
 30
0.0
  0
SEQEND
  8
1
  6
CONTINUOUS
 62
     3
  0
POLYLINE
  8
1
  6
CONTINUOUS
 62
     3
 66
     1
 10
0.0
 20
0.0
 30
0.0
  0
VERTEX
  8
1
  6
CONTINUOUS
 62
     3
 10
-54.88308703045956
 20
16.96114200981324
 30
0.0
  0
VERTEX
  8
1
  6
CONTINUOUS
 62
     3
 10
-55.68308703221166
 20
16.49926179343825
 30
0.0
  0
VERTEX
  8
1
  6
CONTINUOUS
 62
     3
 10
-55.68308703064585
 20
17.42302222618824
 30
0.0
  0
VERTEX
  8
1
  6
CONTINUOUS
 62
     3
 10
-54.88308702774131
 20
16.96114200888192
 30
0.0
  0
SEQEND
  8
1
  6
CONTINUOUS
 62
     3
  0
POLYLINE
  8
1
  6
CONTINUOUS
 62
     3
 66
     1
 10
0.0
 20
0.0
 30
0.0
  0
VERTEX
  8
1
  6
CONTINUOUS
 62
     3
 10
-46.6830870005588
 20
-22.37991799923279
 30
0.0
  0
VERTEX
  8
1
  6
CONTINUOUS
 62
     3
 10
-45.8830869988067
 20
-22.84179821560778
 30
0.0
  0
VERTEX
  8
1
  6
CONTINUOUS
 62
     3
 10
-45.88308700037251
 20
-21.91803778285779
 30
0.0
  0
VERTEX
  8
1
  6
CONTINUOUS
 62
     3
 10
-46.68308700327705
 20
-22.37991800016411
 30
0.0
  0
SEQEND
  8
1
  6
CONTINUOUS
 62
     3
  0
POLYLINE
  8
1
  6
CONTINUOUS
 62
     1
 66
     1
 10
0.0
 20
0.0
 30
0.0
  0
VERTEX
  8
1
  6
CONTINUOUS
 62
     1
 10
-90.98704700097862
 20
-22.14897788844667
 30
0.0
  0
VERTEX
  8
1
  6
CONTINUOUS
 62
     1
 10
-91.38704700154184
 20
-22.379917998976
 30
0.0
  0
VERTEX
  8
1
  6
CONTINUOUS
 62
     1
 10
-90.98704700068464
 20
-22.61085810524838
 30
0.0
  0
VERTEX
  8
1
  6
CONTINUOUS
 62
     1
 10
-90.98704700097862
 20
-22.14897788844667
 30
0.0
  0
SEQEND
  8
1
  6
CONTINUOUS
 62
     1
  0
POLYLINE
  8
1
  6
CONTINUOUS
 62
     1
 66
     1
 10
0.0
 20
0.0
 30
0.0
  0
VERTEX
  8
1
  6
CONTINUOUS
 62
     1
 10
-67.40924100336551
 20
-22.06237535196442
 30
0.0
  0
VERTEX
  8
1
  6
CONTINUOUS
 62
     1
 10
-67.95924100411057
 20
-22.37991800083864
 30
0.0
  0
VERTEX
  8
1
  6
CONTINUOUS
 62
     1
 10
-67.40924100093791
 20
-22.69746065063808
 30
0.0
  0
VERTEX
  8
1
  6
CONTINUOUS
 62
     1
 10
-67.40924100336551
 20
-22.06237535196442
 30
0.0
  0
SEQEND
  8
1
  6
CONTINUOUS
 62
     1
  0
POLYLINE
  8
1
  6
CONTINUOUS
 62
     1
 66
     1
 10
0.0
 20
0.0
 30
0.0
  0
VERTEX
  8
1
  6
CONTINUOUS
 62
     1
 10
-45.58308700230836
 20
-21.97577281127769
 30
0.0
  0
VERTEX
  8
1
  6
CONTINUOUS
 62
     1
 10
-46.28308699970066
 20
-22.379917998976
 30
0.0
  0
VERTEX
  8
1
  6
CONTINUOUS
 62
     1
 10
-45.58308700176838
 20
-22.78406318671703
 30
0.0
  0
VERTEX
  8
1
  6
CONTINUOUS
 62
     1
 10
-45.58308700230836
 20
-21.97577281127769
 30
0.0
  0
SEQEND
  8
1
  6
CONTINUOUS
 62
     1
  0
POLYLINE
  8
1
  6
DASHDOT
 62
     1
 66
     1
 10
0.0
 20
0.0
 30
0.0
  0
VERTEX
  8
1
  6
DASHDOT
 62
     1
 10
-122.6948679989847
 20
22.40009700024223
 30
0.0
  0
VERTEX
  8
1
  6
DASHDOT
 62
     1
 10
-116.6232009989847
 20
22.40009700024223
 30
0.0
  0
VERTEX
  8
1
  6
DASHDOT
 62
     1
 10
-116.6232009989847
 20
18.7570970002422
 30
0.0
  0
VERTEX
  8
1
  6
DASHDOT
 62
     1
 10
-122.6948679989847
 20
18.7570970002422
 30
0.0
  0
VERTEX
  8
1
  6
DASHDOT
 62
     1
 10
-122.6948679989847
 20
22.40009700024223
 30
0.0
  0
SEQEND
  8
1
  6
DASHDOT
 62
     1
  0
POLYLINE
  8
1
  6
CONTINUOUS
 62
     7
 66
     1
 10
0.0
 20
0.0
 30
0.0
  0
VERTEX
  8
1
  6
CONTINUOUS
 62
     7
 10
-113.557998
 20
17.35386800020933
 30
0.0
  0
VERTEX
  8
1
  6
CONTINUOUS
 62
     7
 10
-108.757998
 20
17.35386800020933
 30
0.0
  0
VERTEX
  8
1
  6
CONTINUOUS
 62
     7
 10
-108.757998
 20
0.4611419979482889
 30
0.0
  0
VERTEX
  8
1
  6
CONTINUOUS
 62
     7
 10
-113.557998
 20
0.4611419979482889
 30
0.0
  0
VERTEX
  8
1
  6
CONTINUOUS
 62
     7
 10
-113.557998
 20
17.35386800020933
 30
0.0
  0
SEQEND
  8
1
  6
CONTINUOUS
 62
     7
  0
POLYLINE
  8
1
  6
DOT
 62
     7
 66
     1
 10
0.0
 20
0.0
 30
0.0
  0
VERTEX
  8
1
  6
DOT
 62
     7
 10
-113.782998
 20
-2.379917999729514
 30
0.0
  0
VERTEX
  8
1
  6
DOT
 62
     7
 10
-108.532998
 20
-2.379917999701235
 30
0.0
  0
VERTEX
  8
1
  6
DOT
 62
     7
 10
-108.532998
 20
-22.37991799970123
 30
0.0
  0
VERTEX
  8
1
  6
DOT
 62
     7
 10
-113.782998
 20
-22.37991799972951
 30
0.0
  0
VERTEX
  8
1
  6
DOT
 62
     7
 10
-113.782998
 20
-2.379917999729514
 30
0.0
  0
SEQEND
  8
1
  6
DOT
 62
     7
  0
POLYLINE
  8
1
  6
CONTINUOUS
 62
     1
 66
     1
 10
0.0
 20
0.0
 30
0.0
  0
VERTEX
  8
1
  6
CONTINUOUS
 62
     1
 10
-108.532998
 20
-22.1489778891719
 30
0.0
  0
VERTEX
  8
1
  6
CONTINUOUS
 62
     1
 10
-108.9329980005632
 20
-22.37991799970123
 30
0.0
  0
VERTEX
  8
1
  6
CONTINUOUS
 62
     1
 10
-108.532997999706
 20
-22.61085810597362
 30
0.0
  0
VERTEX
  8
1
  6
CONTINUOUS
 62
     1
 10
-108.532998
 20
-22.1489778891719
 30
0.0
  0
SEQEND
  8
1
  6
CONTINUOUS
 62
     1
  0
POLYLINE
  8
1
  6
CONTINUOUS
 62
     1
 66
     1
 10
0.0
 20
0.0
 30
0.0
  0
VERTEX
  8
1
  6
CONTINUOUS
 62
     1
 10
-108.5329979998947
 20
-21.3489778891719
 30
0.0
  0
VERTEX
  8
1
  6
CONTINUOUS
 62
     1
 10
-108.9329980004579
 20
-21.57991799970123
 30
0.0
  0
VERTEX
  8
1
  6
CONTINUOUS
 62
     1
 10
-108.5329979996007
 20
-21.81085810597362
 30
0.0
  0
VERTEX
  8
1
  6
CONTINUOUS
 62
     1
 10
-108.5329979998947
 20
-21.3489778891719
 30
0.0
  0
SEQEND
  8
1
  6
CONTINUOUS
 62
     1
  0
POLYLINE
  8
1
  6
CONTINUOUS
 62
     1
 66
     1
 10
0.0
 20
0.0
 30
0.0
  0
VERTEX
  8
1
  6
CONTINUOUS
 62
     1
 10
-108.5329979997893
 20
-20.5489778891719
 30
0.0
  0
VERTEX
  8
1
  6
CONTINUOUS
 62
     1
 10
-108.9329980003526
 20
-20.77991799970124
 30
0.0
  0
VERTEX
  8
1
  6
CONTINUOUS
 62
     1
 10
-108.5329979994954
 20
-21.01085810597362
 30
0.0
  0
VERTEX
  8
1
  6
CONTINUOUS
 62
     1
 10
-108.5329979997893
 20
-20.5489778891719
 30
0.0
  0
SEQEND
  8
1
  6
CONTINUOUS
 62
     1
  0
POLYLINE
  8
1
  6
CONTINUOUS
 62
     1
 66
     1
 10
0.0
 20
0.0
 30
0.0
  0
VERTEX
  8
1
  6
CONTINUOUS
 62
     1
 10
-108.532997999684
 20
-19.74897788917191
 30
0.0
  0
VERTEX
  8
1
  6
CONTINUOUS
 62
     1
 10
-108.9329980002472
 20
-19.97991799970124
 30
0.0
  0
VERTEX
  8
1
  6
CONTINUOUS
 62
     1
 10
-108.53299799939
 20
-20.21085810597362
 30
0.0
  0
VERTEX
  8
1
  6
CONTINUOUS
 62
     1
 10
-108.532997999684
 20
-19.74897788917191
 30
0.0
  0
SEQEND
  8
1
  6
CONTINUOUS
 62
     1
  0
POLYLINE
  8
1
  6
CONTINUOUS
 62
     1
 66
     1
 10
0.0
 20
0.0
 30
0.0
  0
VERTEX
  8
1
  6
CONTINUOUS
 62
     1
 10
-108.5329979995787
 20
-18.94897788917191
 30
0.0
  0
VERTEX
  8
1
  6
CONTINUOUS
 62
     1
 10
-108.9329980001419
 20
-19.17991799970124
 30
0.0
  0
VERTEX
  8
1
  6
CONTINUOUS
 62
     1
 10
-108.5329979992847
 20
-19.41085810597363
 30
0.0
  0
VERTEX
  8
1
  6
CONTINUOUS
 62
     1
 10
-108.5329979995787
 20
-18.94897788917191
 30
0.0
  0
SEQEND
  8
1
  6
CONTINUOUS
 62
     1
  0
POLYLINE
  8
1
  6
CONTINUOUS
 62
     1
 66
     1
 10
0.0
 20
0.0
 30
0.0
  0
VERTEX
  8
1
  6
CONTINUOUS
 62
     1
 10
-108.5329979994733
 20
-18.14897788917191
 30
0.0
  0
VERTEX
  8
1
  6
CONTINUOUS
 62
     1
 10
-108.9329980000366
 20
-18.37991799970125
 30
0.0
  0
VERTEX
  8
1
  6
CONTINUOUS
 62
     1
 10
-108.5329979991794
 20
-18.61085810597363
 30
0.0
  0
VERTEX
  8
1
  6
CONTINUOUS
 62
     1
 10
-108.5329979994733
 20
-18.14897788917191
 30
0.0
  0
SEQEND
  8
1
  6
CONTINUOUS
 62
     1
  0
POLYLINE
  8
1
  6
CONTINUOUS
 62
     1
 66
     1
 10
0.0
 20
0.0
 30
0.0
  0
VERTEX
  8
1
  6
CONTINUOUS
 62
     1
 10
-108.532997999368
 20
-17.34897788917192
 30
0.0
  0
VERTEX
  8
1
  6
CONTINUOUS
 62
     1
 10
-108.9329979999312
 20
-17.57991799970125
 30
0.0
  0
VERTEX
  8
1
  6
CONTINUOUS
 62
     1
 10
-108.532997999074
 20
-17.81085810597363
 30
0.0
  0
VERTEX
  8
1
  6
CONTINUOUS
 62
     1
 10
-108.532997999368
 20
-17.34897788917192
 30
0.0
  0
SEQEND
  8
1
  6
CONTINUOUS
 62
     1
  0
POLYLINE
  8
1
  6
CONTINUOUS
 62
     1
 66
     1
 10
0.0
 20
0.0
 30
0.0
  0
VERTEX
  8
1
  6
CONTINUOUS
 62
     1
 10
-108.5329979992627
 20
-16.54897788917192
 30
0.0
  0
VERTEX
  8
1
  6
CONTINUOUS
 62
     1
 10
-108.9329979998259
 20
-16.77991799970125
 30
0.0
  0
VERTEX
  8
1
  6
CONTINUOUS
 62
     1
 10
-108.5329979989687
 20
-17.01085810597364
 30
0.0
  0
VERTEX
  8
1
  6
CONTINUOUS
 62
     1
 10
-108.5329979992627
 20
-16.54897788917192
 30
0.0
  0
SEQEND
  8
1
  6
CONTINUOUS
 62
     1
  0
POLYLINE
  8
1
  6
CONTINUOUS
 62
     1
 66
     1
 10
0.0
 20
0.0
 30
0.0
  0
VERTEX
  8
1
  6
CONTINUOUS
 62
     1
 10
-108.5329979991573
 20
-15.74897788917192
 30
0.0
  0
VERTEX
  8
1
  6
CONTINUOUS
 62
     1
 10
-108.9329979997206
 20
-15.97991799970125
 30
0.0
  0
VERTEX
  8
1
  6
CONTINUOUS
 62
     1
 10
-108.5329979988634
 20
-16.21085810597364
 30
0.0
  0
VERTEX
  8
1
  6
CONTINUOUS
 62
     1
 10
-108.5329979991573
 20
-15.74897788917192
 30
0.0
  0
SEQEND
  8
1
  6
CONTINUOUS
 62
     1
  0
POLYLINE
  8
1
  6
CONTINUOUS
 62
     1
 66
     1
 10
0.0
 20
0.0
 30
0.0
  0
VERTEX
  8
1
  6
CONTINUOUS
 62
     1
 10
-108.532997999052
 20
-14.94897788917192
 30
0.0
  0
VERTEX
  8
1
  6
CONTINUOUS
 62
     1
 10
-108.9329979996152
 20
-15.17991799970126
 30
0.0
  0
VERTEX
  8
1
  6
CONTINUOUS
 62
     1
 10
-108.532997998758
 20
-15.41085810597364
 30
0.0
  0
VERTEX
  8
1
  6
CONTINUOUS
 62
     1
 10
-108.532997999052
 20
-14.94897788917192
 30
0.0
  0
SEQEND
  8
1
  6
CONTINUOUS
 62
     1
  0
POLYLINE
  8
1
  6
CONTINUOUS
 62
     1
 66
     1
 10
0.0
 20
0.0
 30
0.0
  0
VERTEX
  8
1
  6
CONTINUOUS
 62
     1
 10
-108.5329979989467
 20
-14.14897788917193
 30
0.0
  0
VERTEX
  8
1
  6
CONTINUOUS
 62
     1
 10
-108.9329979995099
 20
-14.37991799970126
 30
0.0
  0
VERTEX
  8
1
  6
CONTINUOUS
 62
     1
 10
-108.5329979986527
 20
-14.61085810597364
 30
0.0
  0
VERTEX
  8
1
  6
CONTINUOUS
 62
     1
 10
-108.5329979989467
 20
-14.14897788917193
 30
0.0
  0
SEQEND
  8
1
  6
CONTINUOUS
 62
     1
  0
POLYLINE
  8
1
  6
CONTINUOUS
 62
     1
 66
     1
 10
0.0
 20
0.0
 30
0.0
  0
VERTEX
  8
1
  6
CONTINUOUS
 62
     1
 10
-108.5329979988414
 20
-13.34897788917193
 30
0.0
  0
VERTEX
  8
1
  6
CONTINUOUS
 62
     1
 10
-108.9329979994046
 20
-13.57991799970126
 30
0.0
  0
VERTEX
  8
1
  6
CONTINUOUS
 62
     1
 10
-108.5329979985474
 20
-13.81085810597365
 30
0.0
  0
VERTEX
  8
1
  6
CONTINUOUS
 62
     1
 10
-108.5329979988414
 20
-13.34897788917193
 30
0.0
  0
SEQEND
  8
1
  6
CONTINUOUS
 62
     1
  0
POLYLINE
  8
1
  6
CONTINUOUS
 62
     1
 66
     1
 10
0.0
 20
0.0
 30
0.0
  0
VERTEX
  8
1
  6
CONTINUOUS
 62
     1
 10
-108.532997998736
 20
-12.54897788917193
 30
0.0
  0
VERTEX
  8
1
  6
CONTINUOUS
 62
     1
 10
-108.9329979992992
 20
-12.77991799970127
 30
0.0
  0
VERTEX
  8
1
  6
CONTINUOUS
 62
     1
 10
-108.532997998442
 20
-13.01085810597365
 30
0.0
  0
VERTEX
  8
1
  6
CONTINUOUS
 62
     1
 10
-108.532997998736
 20
-12.54897788917193
 30
0.0
  0
SEQEND
  8
1
  6
CONTINUOUS
 62
     1
  0
POLYLINE
  8
1
  6
CONTINUOUS
 62
     1
 66
     1
 10
0.0
 20
0.0
 30
0.0
  0
VERTEX
  8
1
  6
CONTINUOUS
 62
     1
 10
-108.5329979986307
 20
-11.74897788917194
 30
0.0
  0
VERTEX
  8
1
  6
CONTINUOUS
 62
     1
 10
-108.9329979991939
 20
-11.97991799970127
 30
0.0
  0
VERTEX
  8
1
  6
CONTINUOUS
 62
     1
 10
-108.5329979983367
 20
-12.21085810597365
 30
0.0
  0
VERTEX
  8
1
  6
CONTINUOUS
 62
     1
 10
-108.5329979986307
 20
-11.74897788917194
 30
0.0
  0
SEQEND
  8
1
  6
CONTINUOUS
 62
     1
  0
POLYLINE
  8
1
  6
CONTINUOUS
 62
     1
 66
     1
 10
0.0
 20
0.0
 30
0.0
  0
VERTEX
  8
1
  6
CONTINUOUS
 62
     1
 10
-108.5329979985254
 20
-10.94897788917194
 30
0.0
  0
VERTEX
  8
1
  6
CONTINUOUS
 62
     1
 10
-108.9329979990886
 20
-11.17991799970127
 30
0.0
  0
VERTEX
  8
1
  6
CONTINUOUS
 62
     1
 10
-108.5329979982314
 20
-11.41085810597366
 30
0.0
  0
VERTEX
  8
1
  6
CONTINUOUS
 62
     1
 10
-108.5329979985254
 20
-10.94897788917194
 30
0.0
  0
SEQEND
  8
1
  6
CONTINUOUS
 62
     1
  0
POLYLINE
  8
1
  6
CONTINUOUS
 62
     1
 66
     1
 10
0.0
 20
0.0
 30
0.0
  0
VERTEX
  8
1
  6
CONTINUOUS
 62
     1
 10
-108.53299799842
 20
-10.14897788917194
 30
0.0
  0
VERTEX
  8
1
  6
CONTINUOUS
 62
     1
 10
-108.9329979989833
 20
-10.37991799970127
 30
0.0
  0
VERTEX
  8
1
  6
CONTINUOUS
 62
     1
 10
-108.532997998126
 20
-10.61085810597366
 30
0.0
  0
VERTEX
  8
1
  6
CONTINUOUS
 62
     1
 10
-108.53299799842
 20
-10.14897788917194
 30
0.0
  0
SEQEND
  8
1
  6
CONTINUOUS
 62
     1
  0
POLYLINE
  8
1
  6
CONTINUOUS
 62
     1
 66
     1
 10
0.0
 20
0.0
 30
0.0
  0
VERTEX
  8
1
  6
CONTINUOUS
 62
     1
 10
-108.5329979983147
 20
-9.348977889171945
 30
0.0
  0
VERTEX
  8
1
  6
CONTINUOUS
 62
     1
 10
-108.9329979988779
 20
-9.579917999701276
 30
0.0
  0
VERTEX
  8
1
  6
CONTINUOUS
 62
     1
 10
-108.5329979980207
 20
-9.810858105973661
 30
0.0
  0
VERTEX
  8
1
  6
CONTINUOUS
 62
     1
 10
-108.5329979983147
 20
-9.348977889171945
 30
0.0
  0
SEQEND
  8
1
  6
CONTINUOUS
 62
     1
  0
POLYLINE
  8
1
  6
CONTINUOUS
 62
     1
 66
     1
 10
0.0
 20
0.0
 30
0.0
  0
VERTEX
  8
1
  6
CONTINUOUS
 62
     1
 10
-108.5329979982094
 20
-8.548977889171947
 30
0.0
  0
VERTEX
  8
1
  6
CONTINUOUS
 62
     1
 10
-108.9329979987726
 20
-8.77991799970128
 30
0.0
  0
VERTEX
  8
1
  6
CONTINUOUS
 62
     1
 10
-108.5329979979154
 20
-9.010858105973664
 30
0.0
  0
VERTEX
  8
1
  6
CONTINUOUS
 62
     1
 10
-108.5329979982094
 20
-8.548977889171947
 30
0.0
  0
SEQEND
  8
1
  6
CONTINUOUS
 62
     1
  0
POLYLINE
  8
1
  6
CONTINUOUS
 62
     1
 66
     1
 10
0.0
 20
0.0
 30
0.0
  0
VERTEX
  8
1
  6
CONTINUOUS
 62
     1
 10
-108.532997998104
 20
-7.74897788917195
 30
0.0
  0
VERTEX
  8
1
  6
CONTINUOUS
 62
     1
 10
-108.9329979986673
 20
-7.979917999701282
 30
0.0
  0
VERTEX
  8
1
  6
CONTINUOUS
 62
     1
 10
-108.5329979978101
 20
-8.210858105973667
 30
0.0
  0
VERTEX
  8
1
  6
CONTINUOUS
 62
     1
 10
-108.532997998104
 20
-7.74897788917195
 30
0.0
  0
SEQEND
  8
1
  6
CONTINUOUS
 62
     1
  0
POLYLINE
  8
1
  6
CONTINUOUS
 62
     1
 66
     1
 10
0.0
 20
0.0
 30
0.0
  0
VERTEX
  8
1
  6
CONTINUOUS
 62
     1
 10
-108.5329979979987
 20
-6.948977889171953
 30
0.0
  0
VERTEX
  8
1
  6
CONTINUOUS
 62
     1
 10
-108.9329979985619
 20
-7.179917999701285
 30
0.0
  0
VERTEX
  8
1
  6
CONTINUOUS
 62
     1
 10
-108.5329979977047
 20
-7.41085810597367
 30
0.0
  0
VERTEX
  8
1
  6
CONTINUOUS
 62
     1
 10
-108.5329979979987
 20
-6.948977889171953
 30
0.0
  0
SEQEND
  8
1
  6
CONTINUOUS
 62
     1
  0
POLYLINE
  8
1
  6
CONTINUOUS
 62
     1
 66
     1
 10
0.0
 20
0.0
 30
0.0
  0
VERTEX
  8
1
  6
CONTINUOUS
 62
     1
 10
-108.5329979978934
 20
-6.148977889171956
 30
0.0
  0
VERTEX
  8
1
  6
CONTINUOUS
 62
     1
 10
-108.9329979984566
 20
-6.379917999701288
 30
0.0
  0
VERTEX
  8
1
  6
CONTINUOUS
 62
     1
 10
-108.5329979975994
 20
-6.610858105973673
 30
0.0
  0
VERTEX
  8
1
  6
CONTINUOUS
 62
     1
 10
-108.5329979978934
 20
-6.148977889171956
 30
0.0
  0
SEQEND
  8
1
  6
CONTINUOUS
 62
     1
  0
POLYLINE
  8
1
  6
DASHDOT
 62
     1
 66
     1
 10
0.0
 20
0.0
 30
0.0
  0
VERTEX
  8
1
  6
DASHDOT
 62
     1
 10
-141.7505939989847
 20
22.49508100003289
 30
0.0
  0
VERTEX
  8
1
  6
DASHDOT
 62
     1
 10
-135.6789269989847
 20
22.49508100003289
 30
0.0
  0
VERTEX
  8
1
  6
DASHDOT
 62
     1
 10
-135.6789269989847
 20
18.85208100003286
 30
0.0
  0
VERTEX
  8
1
  6
DASHDOT
 62
     1
 10
-141.7505939989847
 20
18.85208100003286
 30
0.0
  0
VERTEX
  8
1
  6
DASHDOT
 62
     1
 10
-141.7505939989847
 20
22.49508100003289
 30
0.0
  0
SEQEND
  8
1
  6
DASHDOT
 62
     1
  0
POLYLINE
  8
1
  6
CONTINUOUS
 62
     7
 66
     1
 10
0.0
 20
0.0
 30
0.0
  0
VERTEX
  8
1
  6
CONTINUOUS
 62
     7
 10
-132.113724
 20
17.44885199889541
 30
0.0
  0
VERTEX
  8
1
  6
CONTINUOUS
 62
     7
 10
-128.313724
 20
17.44885199889541
 30
0.0
  0
VERTEX
  8
1
  6
CONTINUOUS
 62
     7
 10
-128.313724
 20
0.5561259977389561
 30
0.0
  0
VERTEX
  8
1
  6
CONTINUOUS
 62
     7
 10
-132.113724
 20
0.5561259977389561
 30
0.0
  0
VERTEX
  8
1
  6
CONTINUOUS
 62
     7
 10
-132.113724
 20
17.44885199889541
 30
0.0
  0
SEQEND
  8
1
  6
CONTINUOUS
 62
     7
  0
POLYLINE
  8
1
  6
DOT
 62
     7
 66
     1
 10
0.0
 20
0.0
 30
0.0
  0
VERTEX
  8
1
  6
DOT
 62
     7
 10
-132.363724
 20
-2.284933999180794
 30
0.0
  0
VERTEX
  8
1
  6
DOT
 62
     7
 10
-128.063724
 20
-2.284933999180794
 30
0.0
  0
VERTEX
  8
1
  6
DOT
 62
     7
 10
-128.063724
 20
-22.28493399918079
 30
0.0
  0
VERTEX
  8
1
  6
DOT
 62
     7
 10
-132.363724
 20
-22.28493399918079
 30
0.0
  0
VERTEX
  8
1
  6
DOT
 62
     7
 10
-132.363724
 20
-2.284933999180794
 30
0.0
  0
SEQEND
  8
1
  6
DOT
 62
     7
  0
POLYLINE
  8
1
  6
CONTINUOUS
 62
     1
 66
     1
 10
0.0
 20
0.0
 30
0.0
  0
VERTEX
  8
1
  6
CONTINUOUS
 62
     1
 10
-128.063724000147
 20
-22.05399389142634
 30
0.0
  0
VERTEX
  8
1
  6
CONTINUOUS
 62
     1
 10
-128.4637240007102
 20
-22.28493400195567
 30
0.0
  0
VERTEX
  8
1
  6
CONTINUOUS
 62
     1
 10
-128.063723999853
 20
-22.51587410822806
 30
0.0
  0
VERTEX
  8
1
  6
CONTINUOUS
 62
     1
 10
-128.063724000147
 20
-22.05399389142634
 30
0.0
  0
SEQEND
  8
1
  6
CONTINUOUS
 62
     1
  0
POLYLINE
  8
1
  6
CONTINUOUS
 62
     7
 66
     1
 10
0.0
 20
0.0
 30
0.0
  0
VERTEX
  8
1
  6
CONTINUOUS
 62
     7
 10
-33.24224200148015
 20
-2.379917999971752
 30
0.0
  0
VERTEX
  8
1
  6
CONTINUOUS
 62
     7
 10
-14.24224200148015
 20
-2.379917999971752
 30
0.0
  0
VERTEX
  8
1
  6
CONTINUOUS
 62
     7
 10
-14.24224200148015
 20
-22.37991799997175
 30
0.0
  0
VERTEX
  8
1
  6
CONTINUOUS
 62
     7
 10
-33.24224200148015
 20
-22.37991799997175
 30
0.0
  0
VERTEX
  8
1
  6
CONTINUOUS
 62
     7
 10
-33.24224200148015
 20
-2.379917999971752
 30
0.0
  0
SEQEND
  8
1
  6
CONTINUOUS
 62
     7
  0
POLYLINE
  8
1
  6
DASHDOT
 62
     1
 66
     1
 10
0.0
 20
0.0
 30
0.0
  0
VERTEX
  8
1
  6
DASHDOT
 62
     1
 10
-36.58714500043828
 20
25.39853499999997
 30
0.0
  0
VERTEX
  8
1
  6
DASHDOT
 62
     1
 10
-28.76381200043829
 20
25.39853499999997
 30
0.0
  0
VERTEX
  8
1
  6
DASHDOT
 62
     1
 10
-28.76381200043829
 20
20.96262399999999
 30
0.0
  0
VERTEX
  8
1
  6
DASHDOT
 62
     1
 10
-36.58714500043828
 20
20.96262399999999
 30
0.0
  0
VERTEX
  8
1
  6
DASHDOT
 62
     1
 10
-36.58714500043828
 20
25.39853499999997
 30
0.0
  0
SEQEND
  8
1
  6
DASHDOT
 62
     1
  0
POLYLINE
  8
1
  6
CONTINUOUS
 62
     1
 66
     1
 10
0.0
 20
0.0
 30
0.0
  0
VERTEX
  8
1
  6
CONTINUOUS
 62
     1
 10
-17.542242
 20
-22.87066572904587
 30
0.0
  0
VERTEX
  8
1
  6
CONTINUOUS
 62
     1
 10
-17.542242
 20
-21.88917026855052
 30
0.0
  0
VERTEX
  8
1
  6
CONTINUOUS
 62
     1
 10
-18.39224199950695
 20
-22.37991800066084
 30
0.0
  0
VERTEX
  8
1
  6
CONTINUOUS
 62
     1
 10
-17.542242
 20
-22.87066572904587
 30
0.0
  0
SEQEND
  8
1
  6
CONTINUOUS
 62
     1
  0
POLYLINE
  8
1
  6
CONTINUOUS
 62
     7
 66
     1
 10
0.0
 20
0.0
 30
0.0
  0
VERTEX
  8
1
  6
CONTINUOUS
 62
     7
 10
-29.64224199950695
 20
17.35386799996709
 30
0.0
  0
VERTEX
  8
1
  6
CONTINUOUS
 62
     7
 10
-17.84224200062454
 20
17.35386799996709
 30
0.0
  0
VERTEX
  8
1
  6
CONTINUOUS
 62
     7
 10
-17.84224200062454
 20
0.4611419995686958
 30
0.0
  0
VERTEX
  8
1
  6
CONTINUOUS
 62
     7
 10
-29.64224199950695
 20
0.4611419995686958
 30
0.0
  0
VERTEX
  8
1
  6
CONTINUOUS
 62
     7
 10
-29.64224199950695
 20
17.35386799996709
 30
0.0
  0
SEQEND
  8
1
  6
CONTINUOUS
 62
     7
  0
POLYLINE
  8
1
  6
DOT
 62
     7
 66
     1
 10
0.0
 20
0.0
 30
0.0
  0
VERTEX
  8
1
  6
DOT
 62
     7
 10
-29.942242
 20
-2.379917999971752
 30
0.0
  0
VERTEX
  8
1
  6
DOT
 62
     7
 10
-17.542242
 20
-2.379917999971752
 30
0.0
  0
VERTEX
  8
1
  6
DOT
 62
     7
 10
-17.542242
 20
-22.37991799972951
 30
0.0
  0
VERTEX
  8
1
  6
DOT
 62
     7
 10
-29.942242
 20
-22.37991799972951
 30
0.0
  0
VERTEX
  8
1
  6
DOT
 62
     7
 10
-29.942242
 20
-2.379917999971752
 30
0.0
  0
SEQEND
  8
1
  6
DOT
 62
     7
  0
POLYLINE
  8
1
  6
CONTINUOUS
 62
     3
 66
     1
 10
0.0
 20
0.0
 30
0.0
  0
VERTEX
  8
1
  6
CONTINUOUS
 62
     3
 10
-17.84224200062454
 20
-0.0873407553881407
 30
0.0
  0
VERTEX
  8
1
  6
CONTINUOUS
 62
     3
 10
-17.84224200062454
 20
1.009624756872654
 30
0.0
  0
VERTEX
  8
1
  6
CONTINUOUS
 62
     3
 10
-18.79224200099707
 20
0.4611419995686958
 30
0.0
  0
VERTEX
  8
1
  6
CONTINUOUS
 62
     3
 10
-17.84224200062454
 20
-0.0873407553881407
 30
0.0
  0
SEQEND
  8
1
  6
CONTINUOUS
 62
     3
  0
POLYLINE
  8
1
  6
CONTINUOUS
 62
     3
 66
     1
 10
0.0
 20
0.0
 30
0.0
  0
VERTEX
  8
1
  6
CONTINUOUS
 62
     3
 10
-17.84224200062454
 20
1.662659246474504
 30
0.0
  0
VERTEX
  8
1
  6
CONTINUOUS
 62
     3
 10
-17.84224200062454
 20
2.759624758735299
 30
0.0
  0
VERTEX
  8
1
  6
CONTINUOUS
 62
     3
 10
-18.79224200099707
 20
2.211142001431341
 30
0.0
  0
VERTEX
  8
1
  6
CONTINUOUS
 62
     3
 10
-17.84224200062454
 20
1.662659246474504
 30
0.0
  0
SEQEND
  8
1
  6
CONTINUOUS
 62
     3
  0
POLYLINE
  8
1
  6
CONTINUOUS
 62
     3
 66
     1
 10
0.0
 20
0.0
 30
0.0
  0
VERTEX
  8
1
  6
CONTINUOUS
 62
     3
 10
-17.84224200062454
 20
3.41265924833715
 30
0.0
  0
VERTEX
  8
1
  6
CONTINUOUS
 62
     3
 10
-17.84224200062454
 20
4.509624760597944
 30
0.0
  0
VERTEX
  8
1
  6
CONTINUOUS
 62
     3
 10
-18.79224200099707
 20
3.961142003293986
 30
0.0
  0
VERTEX
  8
1
  6
CONTINUOUS
 62
     3
 10
-17.84224200062454
 20
3.41265924833715
 30
0.0
  0
SEQEND
  8
1
  6
CONTINUOUS
 62
     3
  0
POLYLINE
  8
1
  6
CONTINUOUS
 62
     3
 66
     1
 10
0.0
 20
0.0
 30
0.0
  0
VERTEX
  8
1
  6
CONTINUOUS
 62
     3
 10
-17.84224200062454
 20
5.162659250199795
 30
0.0
  0
VERTEX
  8
1
  6
CONTINUOUS
 62
     3
 10
-17.84224200062454
 20
6.259624762460589
 30
0.0
  0
VERTEX
  8
1
  6
CONTINUOUS
 62
     3
 10
-18.79224200099707
 20
5.711142005156631
 30
0.0
  0
VERTEX
  8
1
  6
CONTINUOUS
 62
     3
 10
-17.84224200062454
 20
5.162659250199795
 30
0.0
  0
SEQEND
  8
1
  6
CONTINUOUS
 62
     3
  0
POLYLINE
  8
1
  6
CONTINUOUS
 62
     3
 66
     1
 10
0.0
 20
0.0
 30
0.0
  0
VERTEX
  8
1
  6
CONTINUOUS
 62
     3
 10
-17.84224200062454
 20
6.91265925206244
 30
0.0
  0
VERTEX
  8
1
  6
CONTINUOUS
 62
     3
 10
-17.84224200062454
 20
8.009624764323235
 30
0.0
  0
VERTEX
  8
1
  6
CONTINUOUS
 62
     3
 10
-18.79224200099707
 20
7.461142007019276
 30
0.0
  0
VERTEX
  8
1
  6
CONTINUOUS
 62
     3
 10
-17.84224200062454
 20
6.91265925206244
 30
0.0
  0
SEQEND
  8
1
  6
CONTINUOUS
 62
     3
  0
POLYLINE
  8
1
  6
CONTINUOUS
 62
     3
 66
     1
 10
0.0
 20
0.0
 30
0.0
  0
VERTEX
  8
1
  6
CONTINUOUS
 62
     3
 10
-17.84224200062454
 20
8.662659253925085
 30
0.0
  0
VERTEX
  8
1
  6
CONTINUOUS
 62
     3
 10
-17.84224200062454
 20
9.75962476618588
 30
0.0
  0
VERTEX
  8
1
  6
CONTINUOUS
 62
     3
 10
-18.79224200099707
 20
9.211142008881922
 30
0.0
  0
VERTEX
  8
1
  6
CONTINUOUS
 62
     3
 10
-17.84224200062454
 20
8.662659253925085
 30
0.0
  0
SEQEND
  8
1
  6
CONTINUOUS
 62
     3
  0
POLYLINE
  8
1
  6
CONTINUOUS
 62
     3
 66
     1
 10
0.0
 20
0.0
 30
0.0
  0
VERTEX
  8
1
  6
CONTINUOUS
 62
     3
 10
-17.84224200062454
 20
10.41265925578773
 30
0.0
  0
VERTEX
  8
1
  6
CONTINUOUS
 62
     3
 10
-17.84224200062454
 20
11.50962476804852
 30
0.0
  0
VERTEX
  8
1
  6
CONTINUOUS
 62
     3
 10
-18.79224200099707
 20
10.96114201074457
 30
0.0
  0
VERTEX
  8
1
  6
CONTINUOUS
 62
     3
 10
-17.84224200062454
 20
10.41265925578773
 30
0.0
  0
SEQEND
  8
1
  6
CONTINUOUS
 62
     3
  0
POLYLINE
  8
1
  6
CONTINUOUS
 62
     3
 66
     1
 10
0.0
 20
0.0
 30
0.0
  0
VERTEX
  8
1
  6
CONTINUOUS
 62
     3
 10
-17.84224200062454
 20
12.16265925765038
 30
0.0
  0
VERTEX
  8
1
  6
CONTINUOUS
 62
     3
 10
-17.84224200062454
 20
13.25962476991117
 30
0.0
  0
VERTEX
  8
1
  6
CONTINUOUS
 62
     3
 10
-18.79224200099707
 20
12.71114201260721
 30
0.0
  0
VERTEX
  8
1
  6
CONTINUOUS
 62
     3
 10
-17.84224200062454
 20
12.16265925765038
 30
0.0
  0
SEQEND
  8
1
  6
CONTINUOUS
 62
     3
  0
POLYLINE
  8
1
  6
CONTINUOUS
 62
     3
 66
     1
 10
0.0
 20
0.0
 30
0.0
  0
VERTEX
  8
1
  6
CONTINUOUS
 62
     3
 10
-17.84224200062454
 20
13.91265925951302
 30
0.0
  0
VERTEX
  8
1
  6
CONTINUOUS
 62
     3
 10
-17.84224200062454
 20
15.00962477177382
 30
0.0
  0
VERTEX
  8
1
  6
CONTINUOUS
 62
     3
 10
-18.79224200099707
 20
14.46114201446986
 30
0.0
  0
VERTEX
  8
1
  6
CONTINUOUS
 62
     3
 10
-17.84224200062454
 20
13.91265925951302
 30
0.0
  0
SEQEND
  8
1
  6
CONTINUOUS
 62
     3
  0
POLYLINE
  8
1
  6
CONTINUOUS
 62
     3
 66
     1
 10
0.0
 20
0.0
 30
0.0
  0
VERTEX
  8
1
  6
CONTINUOUS
 62
     3
 10
-17.84224200062454
 20
15.66265926137567
 30
0.0
  0
VERTEX
  8
1
  6
CONTINUOUS
 62
     3
 10
-17.84224200062454
 20
16.75962477363646
 30
0.0
  0
VERTEX
  8
1
  6
CONTINUOUS
 62
     3
 10
-18.79224200099707
 20
16.2111420163325
 30
0.0
  0
VERTEX
  8
1
  6
CONTINUOUS
 62
     3
 10
-17.84224200062454
 20
15.66265926137567
 30
0.0
  0
SEQEND
  8
1
  6
CONTINUOUS
 62
     3
  0
POLYLINE
  8
1
  6
CONTINUOUS
 62
     3
 66
     1
 10
0.0
 20
0.0
 30
0.0
  0
VERTEX
  8
1
  6
CONTINUOUS
 62
     3
 10
-29.6422420013696
 20
-0.0873407553881407
 30
0.0
  0
VERTEX
  8
1
  6
CONTINUOUS
 62
     3
 10
-29.6422420013696
 20
1.009624756872654
 30
0.0
  0
VERTEX
  8
1
  6
CONTINUOUS
 62
     3
 10
-28.69224200099707
 20
0.4611419995686958
 30
0.0
  0
VERTEX
  8
1
  6
CONTINUOUS
 62
     3
 10
-29.6422420013696
 20
-0.0873407553881407
 30
0.0
  0
SEQEND
  8
1
  6
CONTINUOUS
 62
     3
  0
POLYLINE
  8
1
  6
CONTINUOUS
 62
     3
 66
     1
 10
0.0
 20
0.0
 30
0.0
  0
VERTEX
  8
1
  6
CONTINUOUS
 62
     3
 10
-29.6422420013696
 20
1.662659246474504
 30
0.0
  0
VERTEX
  8
1
  6
CONTINUOUS
 62
     3
 10
-29.6422420013696
 20
2.759624758735299
 30
0.0
  0
VERTEX
  8
1
  6
CONTINUOUS
 62
     3
 10
-28.69224200099707
 20
2.211142001431341
 30
0.0
  0
VERTEX
  8
1
  6
CONTINUOUS
 62
     3
 10
-29.6422420013696
 20
1.662659246474504
 30
0.0
  0
SEQEND
  8
1
  6
CONTINUOUS
 62
     3
  0
POLYLINE
  8
1
  6
CONTINUOUS
 62
     3
 66
     1
 10
0.0
 20
0.0
 30
0.0
  0
VERTEX
  8
1
  6
CONTINUOUS
 62
     3
 10
-29.6422420013696
 20
3.41265924833715
 30
0.0
  0
VERTEX
  8
1
  6
CONTINUOUS
 62
     3
 10
-29.6422420013696
 20
4.509624760597944
 30
0.0
  0
VERTEX
  8
1
  6
CONTINUOUS
 62
     3
 10
-28.69224200099707
 20
3.961142003293986
 30
0.0
  0
VERTEX
  8
1
  6
CONTINUOUS
 62
     3
 10
-29.6422420013696
 20
3.41265924833715
 30
0.0
  0
SEQEND
  8
1
  6
CONTINUOUS
 62
     3
  0
POLYLINE
  8
1
  6
CONTINUOUS
 62
     3
 66
     1
 10
0.0
 20
0.0
 30
0.0
  0
VERTEX
  8
1
  6
CONTINUOUS
 62
     3
 10
-29.6422420013696
 20
5.162659250199795
 30
0.0
  0
VERTEX
  8
1
  6
CONTINUOUS
 62
     3
 10
-29.6422420013696
 20
6.259624762460589
 30
0.0
  0
VERTEX
  8
1
  6
CONTINUOUS
 62
     3
 10
-28.69224200099707
 20
5.711142005156631
 30
0.0
  0
VERTEX
  8
1
  6
CONTINUOUS
 62
     3
 10
-29.6422420013696
 20
5.162659250199795
 30
0.0
  0
SEQEND
  8
1
  6
CONTINUOUS
 62
     3
  0
POLYLINE
  8
1
  6
CONTINUOUS
 62
     3
 66
     1
 10
0.0
 20
0.0
 30
0.0
  0
VERTEX
  8
1
  6
CONTINUOUS
 62
     3
 10
-29.6422420013696
 20
6.91265925206244
 30
0.0
  0
VERTEX
  8
1
  6
CONTINUOUS
 62
     3
 10
-29.6422420013696
 20
8.009624764323235
 30
0.0
  0
VERTEX
  8
1
  6
CONTINUOUS
 62
     3
 10
-28.69224200099707
 20
7.461142007019276
 30
0.0
  0
VERTEX
  8
1
  6
CONTINUOUS
 62
     3
 10
-29.6422420013696
 20
6.91265925206244
 30
0.0
  0
SEQEND
  8
1
  6
CONTINUOUS
 62
     3
  0
POLYLINE
  8
1
  6
CONTINUOUS
 62
     3
 66
     1
 10
0.0
 20
0.0
 30
0.0
  0
VERTEX
  8
1
  6
CONTINUOUS
 62
     3
 10
-29.6422420013696
 20
8.662659253925085
 30
0.0
  0
VERTEX
  8
1
  6
CONTINUOUS
 62
     3
 10
-29.6422420013696
 20
9.75962476618588
 30
0.0
  0
VERTEX
  8
1
  6
CONTINUOUS
 62
     3
 10
-28.69224200099707
 20
9.211142008881922
 30
0.0
  0
VERTEX
  8
1
  6
CONTINUOUS
 62
     3
 10
-29.6422420013696
 20
8.662659253925085
 30
0.0
  0
SEQEND
  8
1
  6
CONTINUOUS
 62
     3
  0
POLYLINE
  8
1
  6
CONTINUOUS
 62
     3
 66
     1
 10
0.0
 20
0.0
 30
0.0
  0
VERTEX
  8
1
  6
CONTINUOUS
 62
     3
 10
-29.6422420013696
 20
10.41265925578773
 30
0.0
  0
VERTEX
  8
1
  6
CONTINUOUS
 62
     3
 10
-29.6422420013696
 20
11.50962476804852
 30
0.0
  0
VERTEX
  8
1
  6
CONTINUOUS
 62
     3
 10
-28.69224200099707
 20
10.96114201074457
 30
0.0
  0
VERTEX
  8
1
  6
CONTINUOUS
 62
     3
 10
-29.6422420013696
 20
10.41265925578773
 30
0.0
  0
SEQEND
  8
1
  6
CONTINUOUS
 62
     3
  0
POLYLINE
  8
1
  6
CONTINUOUS
 62
     3
 66
     1
 10
0.0
 20
0.0
 30
0.0
  0
VERTEX
  8
1
  6
CONTINUOUS
 62
     3
 10
-29.6422420013696
 20
12.16265925765038
 30
0.0
  0
VERTEX
  8
1
  6
CONTINUOUS
 62
     3
 10
-29.6422420013696
 20
13.25962476991117
 30
0.0
  0
VERTEX
  8
1
  6
CONTINUOUS
 62
     3
 10
-28.69224200099707
 20
12.71114201260721
 30
0.0
  0
VERTEX
  8
1
  6
CONTINUOUS
 62
     3
 10
-29.6422420013696
 20
12.16265925765038
 30
0.0
  0
SEQEND
  8
1
  6
CONTINUOUS
 62
     3
  0
POLYLINE
  8
1
  6
CONTINUOUS
 62
     3
 66
     1
 10
0.0
 20
0.0
 30
0.0
  0
VERTEX
  8
1
  6
CONTINUOUS
 62
     3
 10
-29.6422420013696
 20
13.91265925951302
 30
0.0
  0
VERTEX
  8
1
  6
CONTINUOUS
 62
     3
 10
-29.6422420013696
 20
15.00962477177382
 30
0.0
  0
VERTEX
  8
1
  6
CONTINUOUS
 62
     3
 10
-28.69224200099707
 20
14.46114201446986
 30
0.0
  0
VERTEX
  8
1
  6
CONTINUOUS
 62
     3
 10
-29.6422420013696
 20
13.91265925951302
 30
0.0
  0
SEQEND
  8
1
  6
CONTINUOUS
 62
     3
  0
POLYLINE
  8
1
  6
CONTINUOUS
 62
     3
 66
     1
 10
0.0
 20
0.0
 30
0.0
  0
VERTEX
  8
1
  6
CONTINUOUS
 62
     3
 10
-29.6422420013696
 20
15.66265926137567
 30
0.0
  0
VERTEX
  8
1
  6
CONTINUOUS
 62
     3
 10
-29.6422420013696
 20
16.75962477363646
 30
0.0
  0
VERTEX
  8
1
  6
CONTINUOUS
 62
     3
 10
-28.69224200099707
 20
16.2111420163325
 30
0.0
  0
VERTEX
  8
1
  6
CONTINUOUS
 62
     3
 10
-29.6422420013696
 20
15.66265926137567
 30
0.0
  0
SEQEND
  8
1
  6
CONTINUOUS
 62
     3
  0
POLYLINE
  8
1
  6
CONTINUOUS
 62
     3
 66
     1
 10
0.0
 20
0.0
 30
0.0
  0
VERTEX
  8
1
  6
CONTINUOUS
 62
     3
 10
-17.8422420016216
 20
-22.92840075517083
 30
0.0
  0
VERTEX
  8
1
  6
CONTINUOUS
 62
     3
 10
-17.8422420016216
 20
-21.83143524291003
 30
0.0
  0
VERTEX
  8
1
  6
CONTINUOUS
 62
     3
 10
-18.79224200199413
 20
-22.37991800021399
 30
0.0
  0
VERTEX
  8
1
  6
CONTINUOUS
 62
     3
 10
-17.8422420016216
 20
-22.92840075517083
 30
0.0
  0
SEQEND
  8
1
  6
CONTINUOUS
 62
     3
  0
POLYLINE
  8
1
  6
CONTINUOUS
 62
     7
 66
     1
 10
0.0
 20
0.0
 30
0.0
  0
VERTEX
  8
1
  6
CONTINUOUS
 62
     7
 10
-3.364291000483085
 20
-2.379917999729514
 30
0.0
  0
VERTEX
  8
1
  6
CONTINUOUS
 62
     7
 10
15.63570899951691
 20
-2.379917999729514
 30
0.0
  0
VERTEX
  8
1
  6
CONTINUOUS
 62
     7
 10
15.63570899951691
 20
-22.37991799972951
 30
0.0
  0
VERTEX
  8
1
  6
CONTINUOUS
 62
     7
 10
-3.364291000483085
 20
-22.37991799972951
 30
0.0
  0
VERTEX
  8
1
  6
CONTINUOUS
 62
     7
 10
-3.364291000483085
 20
-2.379917999729514
 30
0.0
  0
SEQEND
  8
1
  6
CONTINUOUS
 62
     7
  0
POLYLINE
  8
1
  6
DASHDOT
 62
     1
 66
     1
 10
0.0
 20
0.0
 30
0.0
  0
VERTEX
  8
1
  6
DASHDOT
 62
     1
 10
-6.709193999441219
 20
25.39853500024221
 30
0.0
  0
VERTEX
  8
1
  6
DASHDOT
 62
     1
 10
1.114139000558772
 20
25.39853500024221
 30
0.0
  0
VERTEX
  8
1
  6
DASHDOT
 62
     1
 10
1.114139000558772
 20
20.96262400024223
 30
0.0
  0
VERTEX
  8
1
  6
DASHDOT
 62
     1
 10
-6.709193999441219
 20
20.96262400024223
 30
0.0
  0
VERTEX
  8
1
  6
DASHDOT
 62
     1
 10
-6.709193999441219
 20
25.39853500024221
 30
0.0
  0
SEQEND
  8
1
  6
DASHDOT
 62
     1
  0
POLYLINE
  8
1
  6
DOT
 62
     7
 66
     1
 10
0.0
 20
0.0
 30
0.0
  0
VERTEX
  8
1
  6
DOT
 62
     7
 10
-1.064291
 20
-2.379917999729514
 30
0.0
  0
VERTEX
  8
1
  6
DOT
 62
     7
 10
13.335709
 20
-2.379917999729514
 30
0.0
  0
VERTEX
  8
1
  6
DOT
 62
     7
 10
13.335709
 20
-22.37991799948728
 30
0.0
  0
VERTEX
  8
1
  6
DOT
 62
     7
 10
-1.064291000000003
 20
-22.37991799948728
 30
0.0
  0
VERTEX
  8
1
  6
DOT
 62
     7
 10
-1.064291
 20
-2.379917999729514
 30
0.0
  0
SEQEND
  8
1
  6
DOT
 62
     7
  0
POLYLINE
  8
1
  6
CONTINUOUS
 62
     3
 66
     1
 10
0.0
 20
0.0
 30
0.0
  0
VERTEX
  8
1
  6
CONTINUOUS
 62
     3
 10
13.03570900112391
 20
-0.1739432942122221
 30
0.0
  0
VERTEX
  8
1
  6
CONTINUOUS
 62
     3
 10
13.03570900112391
 20
1.096227296628058
 30
0.0
  0
VERTEX
  8
1
  6
CONTINUOUS
 62
     3
 10
11.93570900235204
 20
0.4611420007422566
 30
0.0
  0
VERTEX
  8
1
  6
CONTINUOUS
 62
     3
 10
13.03570900112391
 20
-0.1739432942122221
 30
0.0
  0
SEQEND
  8
1
  6
CONTINUOUS
 62
     3
  0
POLYLINE
  8
1
  6
CONTINUOUS
 62
     7
 66
     1
 10
0.0
 20
0.0
 30
0.0
  0
VERTEX
  8
1
  6
CONTINUOUS
 62
     7
 10
-0.764291
 20
17.35386800020933
 30
0.0
  0
VERTEX
  8
1
  6
CONTINUOUS
 62
     7
 10
13.035709
 20
17.35386800020933
 30
0.0
  0
VERTEX
  8
1
  6
CONTINUOUS
 62
     7
 10
13.035709
 20
0.4611419998109341
 30
0.0
  0
VERTEX
  8
1
  6
CONTINUOUS
 62
     7
 10
-0.7642910000000032
 20
0.4611419998109341
 30
0.0
  0
VERTEX
  8
1
  6
CONTINUOUS
 62
     7
 10
-0.764291
 20
17.35386800020933
 30
0.0
  0
SEQEND
  8
1
  6
CONTINUOUS
 62
     7
  0
POLYLINE
  8
1
  6
CONTINUOUS
 62
     3
 66
     1
 10
0.0
 20
0.0
 30
0.0
  0
VERTEX
  8
1
  6
CONTINUOUS
 62
     3
 10
13.03570900384216
 20
1.826056705787778
 30
0.0
  0
VERTEX
  8
1
  6
CONTINUOUS
 62
     3
 10
13.03570900384216
 20
3.096227296628058
 30
0.0
  0
VERTEX
  8
1
  6
CONTINUOUS
 62
     3
 10
11.93570900507029
 20
2.461142000742257
 30
0.0
  0
VERTEX
  8
1
  6
CONTINUOUS
 62
     3
 10
13.03570900384216
 20
1.826056705787778
 30
0.0
  0
SEQEND
  8
1
  6
CONTINUOUS
 62
     3
  0
POLYLINE
  8
1
  6
CONTINUOUS
 62
     3
 66
     1
 10
0.0
 20
0.0
 30
0.0
  0
VERTEX
  8
1
  6
CONTINUOUS
 62
     3
 10
13.03570900656041
 20
3.826056705787778
 30
0.0
  0
VERTEX
  8
1
  6
CONTINUOUS
 62
     3
 10
13.03570900656041
 20
5.096227296628058
 30
0.0
  0
VERTEX
  8
1
  6
CONTINUOUS
 62
     3
 10
11.93570900778855
 20
4.461142000742257
 30
0.0
  0
VERTEX
  8
1
  6
CONTINUOUS
 62
     3
 10
13.03570900656041
 20
3.826056705787778
 30
0.0
  0
SEQEND
  8
1
  6
CONTINUOUS
 62
     3
  0
POLYLINE
  8
1
  6
CONTINUOUS
 62
     3
 66
     1
 10
0.0
 20
0.0
 30
0.0
  0
VERTEX
  8
1
  6
CONTINUOUS
 62
     3
 10
13.03570900927866
 20
5.826056705787778
 30
0.0
  0
VERTEX
  8
1
  6
CONTINUOUS
 62
     3
 10
13.03570900927866
 20
7.096227296628058
 30
0.0
  0
VERTEX
  8
1
  6
CONTINUOUS
 62
     3
 10
11.9357090105068
 20
6.461142000742257
 30
0.0
  0
VERTEX
  8
1
  6
CONTINUOUS
 62
     3
 10
13.03570900927866
 20
5.826056705787778
 30
0.0
  0
SEQEND
  8
1
  6
CONTINUOUS
 62
     3
  0
POLYLINE
  8
1
  6
CONTINUOUS
 62
     3
 66
     1
 10
0.0
 20
0.0
 30
0.0
  0
VERTEX
  8
1
  6
CONTINUOUS
 62
     3
 10
13.03570901199691
 20
7.826056705787778
 30
0.0
  0
VERTEX
  8
1
  6
CONTINUOUS
 62
     3
 10
13.03570901199691
 20
9.096227296628058
 30
0.0
  0
VERTEX
  8
1
  6
CONTINUOUS
 62
     3
 10
11.93570901322505
 20
8.461142000742257
 30
0.0
  0
VERTEX
  8
1
  6
CONTINUOUS
 62
     3
 10
13.03570901199691
 20
7.826056705787778
 30
0.0
  0
SEQEND
  8
1
  6
CONTINUOUS
 62
     3
  0
POLYLINE
  8
1
  6
CONTINUOUS
 62
     3
 66
     1
 10
0.0
 20
0.0
 30
0.0
  0
VERTEX
  8
1
  6
CONTINUOUS
 62
     3
 10
13.03570901471517
 20
9.826056705787778
 30
0.0
  0
VERTEX
  8
1
  6
CONTINUOUS
 62
     3
 10
13.03570901471517
 20
11.09622729662806
 30
0.0
  0
VERTEX
  8
1
  6
CONTINUOUS
 62
     3
 10
11.9357090159433
 20
10.46114200074226
 30
0.0
  0
VERTEX
  8
1
  6
CONTINUOUS
 62
     3
 10
13.03570901471517
 20
9.826056705787778
 30
0.0
  0
SEQEND
  8
1
  6
CONTINUOUS
 62
     3
  0
POLYLINE
  8
1
  6
CONTINUOUS
 62
     3
 66
     1
 10
0.0
 20
0.0
 30
0.0
  0
VERTEX
  8
1
  6
CONTINUOUS
 62
     3
 10
13.03570901743342
 20
11.82605670578778
 30
0.0
  0
VERTEX
  8
1
  6
CONTINUOUS
 62
     3
 10
13.03570901743342
 20
13.09622729662806
 30
0.0
  0
VERTEX
  8
1
  6
CONTINUOUS
 62
     3
 10
11.93570901866156
 20
12.46114200074226
 30
0.0
  0
VERTEX
  8
1
  6
CONTINUOUS
 62
     3
 10
13.03570901743342
 20
11.82605670578778
 30
0.0
  0
SEQEND
  8
1
  6
CONTINUOUS
 62
     3
  0
POLYLINE
  8
1
  6
CONTINUOUS
 62
     3
 66
     1
 10
0.0
 20
0.0
 30
0.0
  0
VERTEX
  8
1
  6
CONTINUOUS
 62
     3
 10
13.03570902015167
 20
13.82605670578778
 30
0.0
  0
VERTEX
  8
1
  6
CONTINUOUS
 62
     3
 10
13.03570902015167
 20
15.09622729662806
 30
0.0
  0
VERTEX
  8
1
  6
CONTINUOUS
 62
     3
 10
11.93570902137981
 20
14.46114200074226
 30
0.0
  0
VERTEX
  8
1
  6
CONTINUOUS
 62
     3
 10
13.03570902015167
 20
13.82605670578778
 30
0.0
  0
SEQEND
  8
1
  6
CONTINUOUS
 62
     3
  0
POLYLINE
  8
1
  6
CONTINUOUS
 62
     3
 66
     1
 10
0.0
 20
0.0
 30
0.0
  0
VERTEX
  8
1
  6
CONTINUOUS
 62
     3
 10
13.03570902286992
 20
15.82605670578778
 30
0.0
  0
VERTEX
  8
1
  6
CONTINUOUS
 62
     3
 10
13.03570902286992
 20
17.09622729662806
 30
0.0
  0
VERTEX
  8
1
  6
CONTINUOUS
 62
     3
 10
11.93570902409806
 20
16.46114200074226
 30
0.0
  0
VERTEX
  8
1
  6
CONTINUOUS
 62
     3
 10
13.03570902286992
 20
15.82605670578778
 30
0.0
  0
SEQEND
  8
1
  6
CONTINUOUS
 62
     3
  0
POLYLINE
  8
1
  6
CONTINUOUS
 62
     3
 66
     1
 10
0.0
 20
0.0
 30
0.0
  0
VERTEX
  8
1
  6
CONTINUOUS
 62
     3
 10
-0.7642910011239081
 20
-0.1739432942122221
 30
0.0
  0
VERTEX
  8
1
  6
CONTINUOUS
 62
     3
 10
-0.7642910011239081
 20
1.096227296628058
 30
0.0
  0
VERTEX
  8
1
  6
CONTINUOUS
 62
     3
 10
0.3357089976479557
 20
0.4611420007422566
 30
0.0
  0
VERTEX
  8
1
  6
CONTINUOUS
 62
     3
 10
-0.7642910011239081
 20
-0.1739432942122221
 30
0.0
  0
SEQEND
  8
1
  6
CONTINUOUS
 62
     3
  0
POLYLINE
  8
1
  6
CONTINUOUS
 62
     3
 66
     1
 10
0.0
 20
0.0
 30
0.0
  0
VERTEX
  8
1
  6
CONTINUOUS
 62
     3
 10
-0.7642910038421604
 20
1.826056705787778
 30
0.0
  0
VERTEX
  8
1
  6
CONTINUOUS
 62
     3
 10
-0.7642910038421604
 20
3.096227296628058
 30
0.0
  0
VERTEX
  8
1
  6
CONTINUOUS
 62
     3
 10
0.3357089949297034
 20
2.461142000742257
 30
0.0
  0
VERTEX
  8
1
  6
CONTINUOUS
 62
     3
 10
-0.7642910038421604
 20
1.826056705787778
 30
0.0
  0
SEQEND
  8
1
  6
CONTINUOUS
 62
     3
  0
POLYLINE
  8
1
  6
CONTINUOUS
 62
     3
 66
     1
 10
0.0
 20
0.0
 30
0.0
  0
VERTEX
  8
1
  6
CONTINUOUS
 62
     3
 10
-0.7642910065604127
 20
3.826056705787778
 30
0.0
  0
VERTEX
  8
1
  6
CONTINUOUS
 62
     3
 10
-0.7642910065604127
 20
5.096227296628058
 30
0.0
  0
VERTEX
  8
1
  6
CONTINUOUS
 62
     3
 10
0.3357089922114511
 20
4.461142000742257
 30
0.0
  0
VERTEX
  8
1
  6
CONTINUOUS
 62
     3
 10
-0.7642910065604127
 20
3.826056705787778
 30
0.0
  0
SEQEND
  8
1
  6
CONTINUOUS
 62
     3
  0
POLYLINE
  8
1
  6
CONTINUOUS
 62
     3
 66
     1
 10
0.0
 20
0.0
 30
0.0
  0
VERTEX
  8
1
  6
CONTINUOUS
 62
     3
 10
-0.764291009278665
 20
5.826056705787778
 30
0.0
  0
VERTEX
  8
1
  6
CONTINUOUS
 62
     3
 10
-0.764291009278665
 20
7.096227296628058
 30
0.0
  0
VERTEX
  8
1
  6
CONTINUOUS
 62
     3
 10
0.3357089894931988
 20
6.461142000742257
 30
0.0
  0
VERTEX
  8
1
  6
CONTINUOUS
 62
     3
 10
-0.764291009278665
 20
5.826056705787778
 30
0.0
  0
SEQEND
  8
1
  6
CONTINUOUS
 62
     3
  0
POLYLINE
  8
1
  6
CONTINUOUS
 62
     3
 66
     1
 10
0.0
 20
0.0
 30
0.0
  0
VERTEX
  8
1
  6
CONTINUOUS
 62
     3
 10
-0.7642910119969173
 20
7.826056705787778
 30
0.0
  0
VERTEX
  8
1
  6
CONTINUOUS
 62
     3
 10
-0.7642910119969173
 20
9.096227296628058
 30
0.0
  0
VERTEX
  8
1
  6
CONTINUOUS
 62
     3
 10
0.3357089867749465
 20
8.461142000742257
 30
0.0
  0
VERTEX
  8
1
  6
CONTINUOUS
 62
     3
 10
-0.7642910119969173
 20
7.826056705787778
 30
0.0
  0
SEQEND
  8
1
  6
CONTINUOUS
 62
     3
  0
POLYLINE
  8
1
  6
CONTINUOUS
 62
     3
 66
     1
 10
0.0
 20
0.0
 30
0.0
  0
VERTEX
  8
1
  6
CONTINUOUS
 62
     3
 10
-0.7642910147151696
 20
9.826056705787778
 30
0.0
  0
VERTEX
  8
1
  6
CONTINUOUS
 62
     3
 10
-0.7642910147151696
 20
11.09622729662806
 30
0.0
  0
VERTEX
  8
1
  6
CONTINUOUS
 62
     3
 10
0.3357089840566942
 20
10.46114200074226
 30
0.0
  0
VERTEX
  8
1
  6
CONTINUOUS
 62
     3
 10
-0.7642910147151696
 20
9.826056705787778
 30
0.0
  0
SEQEND
  8
1
  6
CONTINUOUS
 62
     3
  0
POLYLINE
  8
1
  6
CONTINUOUS
 62
     3
 66
     1
 10
0.0
 20
0.0
 30
0.0
  0
VERTEX
  8
1
  6
CONTINUOUS
 62
     3
 10
-0.7642910174334219
 20
11.82605670578778
 30
0.0
  0
VERTEX
  8
1
  6
CONTINUOUS
 62
     3
 10
-0.7642910174334219
 20
13.09622729662806
 30
0.0
  0
VERTEX
  8
1
  6
CONTINUOUS
 62
     3
 10
0.335708981338442
 20
12.46114200074226
 30
0.0
  0
VERTEX
  8
1
  6
CONTINUOUS
 62
     3
 10
-0.7642910174334219
 20
11.82605670578778
 30
0.0
  0
SEQEND
  8
1
  6
CONTINUOUS
 62
     3
  0
POLYLINE
  8
1
  6
CONTINUOUS
 62
     3
 66
     1
 10
0.0
 20
0.0
 30
0.0
  0
VERTEX
  8
1
  6
CONTINUOUS
 62
     3
 10
-0.7642910201516742
 20
13.82605670578778
 30
0.0
  0
VERTEX
  8
1
  6
CONTINUOUS
 62
     3
 10
-0.7642910201516742
 20
15.09622729662806
 30
0.0
  0
VERTEX
  8
1
  6
CONTINUOUS
 62
     3
 10
0.3357089786201897
 20
14.46114200074226
 30
0.0
  0
VERTEX
  8
1
  6
CONTINUOUS
 62
     3
 10
-0.7642910201516742
 20
13.82605670578778
 30
0.0
  0
SEQEND
  8
1
  6
CONTINUOUS
 62
     3
  0
POLYLINE
  8
1
  6
CONTINUOUS
 62
     3
 66
     1
 10
0.0
 20
0.0
 30
0.0
  0
VERTEX
  8
1
  6
CONTINUOUS
 62
     3
 10
-0.7642910228699265
 20
15.82605670578778
 30
0.0
  0
VERTEX
  8
1
  6
CONTINUOUS
 62
     3
 10
-0.7642910228699265
 20
17.09622729662806
 30
0.0
  0
VERTEX
  8
1
  6
CONTINUOUS
 62
     3
 10
0.3357089759019374
 20
16.46114200074226
 30
0.0
  0
VERTEX
  8
1
  6
CONTINUOUS
 62
     3
 10
-0.7642910228699265
 20
15.82605670578778
 30
0.0
  0
SEQEND
  8
1
  6
CONTINUOUS
 62
     3
  0
POLYLINE
  8
1
  6
CONTINUOUS
 62
     3
 66
     1
 10
0.0
 20
0.0
 30
0.0
  0
VERTEX
  8
1
  6
CONTINUOUS
 62
     3
 10
13.03570900112391
 20
-23.01500329375267
 30
0.0
  0
VERTEX
  8
1
  6
CONTINUOUS
 62
     3
 10
13.03570900112391
 20
-21.74483270291239
 30
0.0
  0
VERTEX
  8
1
  6
CONTINUOUS
 62
     3
 10
11.93570900235204
 20
-22.37991799879819
 30
0.0
  0
VERTEX
  8
1
  6
CONTINUOUS
 62
     3
 10
13.03570900112391
 20
-23.01500329375267
 30
0.0
  0
SEQEND
  8
1
  6
CONTINUOUS
 62
     3
  0
POLYLINE
  8
1
  6
CONTINUOUS
 62
     1
 66
     1
 10
0.0
 20
0.0
 30
0.0
  0
VERTEX
  8
1
  6
CONTINUOUS
 62
     1
 10
13.33570900000632
 20
-22.9572682660073
 30
0.0
  0
VERTEX
  8
1
  6
CONTINUOUS
 62
     1
 10
13.33570900000632
 20
-21.80256773065776
 30
0.0
  0
VERTEX
  8
1
  6
CONTINUOUS
 62
     1
 10
12.33570900186896
 20
-22.37991799879819
 30
0.0
  0
VERTEX
  8
1
  6
CONTINUOUS
 62
     1
 10
13.33570900000632
 20
-22.9572682660073
 30
0.0
  0
SEQEND
  8
1
  6
CONTINUOUS
 62
     1
  0
POLYLINE
  8
1
  6
CONTINUOUS
 62
     7
 66
     1
 10
0.0
 20
0.0
 30
0.0
  0
VERTEX
  8
1
  6
CONTINUOUS
 62
     7
 10
31.10895199839146
 20
-2.379917999729514
 30
0.0
  0
VERTEX
  8
1
  6
CONTINUOUS
 62
     7
 10
50.10895199839146
 20
-2.379917999729514
 30
0.0
  0
VERTEX
  8
1
  6
CONTINUOUS
 62
     7
 10
50.10895199839146
 20
-22.37991799972951
 30
0.0
  0
VERTEX
  8
1
  6
CONTINUOUS
 62
     7
 10
31.10895199839146
 20
-22.37991799972951
 30
0.0
  0
VERTEX
  8
1
  6
CONTINUOUS
 62
     7
 10
31.10895199839146
 20
-2.379917999729514
 30
0.0
  0
SEQEND
  8
1
  6
CONTINUOUS
 62
     7
  0
POLYLINE
  8
1
  6
DOT
 62
     7
 66
     1
 10
0.0
 20
0.0
 30
0.0
  0
VERTEX
  8
1
  6
DOT
 62
     7
 10
32.408952
 20
-2.379917999729514
 30
0.0
  0
VERTEX
  8
1
  6
DOT
 62
     7
 10
48.80895199999999
 20
-2.379917999729514
 30
0.0
  0
VERTEX
  8
1
  6
DOT
 62
     7
 10
48.80895199999999
 20
-22.37991799948728
 30
0.0
  0
VERTEX
  8
1
  6
DOT
 62
     7
 10
32.40895199999999
 20
-22.37991799948728
 30
0.0
  0
VERTEX
  8
1
  6
DOT
 62
     7
 10
32.408952
 20
-2.379917999729514
 30
0.0
  0
SEQEND
  8
1
  6
DOT
 62
     7
  0
POLYLINE
  8
1
  6
CONTINUOUS
 62
     1
 66
     1
 10
0.0
 20
0.0
 30
0.0
  0
VERTEX
  8
1
  6
CONTINUOUS
 62
     1
 10
48.80895199999999
 20
-22.95149476826191
 30
0.0
  0
VERTEX
  8
1
  6
CONTINUOUS
 62
     1
 10
48.80895199999999
 20
-21.80834123305976
 30
0.0
  0
VERTEX
  8
1
  6
CONTINUOUS
 62
     1
 10
47.8189519990995
 20
-22.37991799997175
 30
0.0
  0
VERTEX
  8
1
  6
CONTINUOUS
 62
     1
 10
48.80895199999999
 20
-22.95149476826191
 30
0.0
  0
SEQEND
  8
1
  6
CONTINUOUS
 62
     1
  0
POLYLINE
  8
1
  6
DASHDOT
 62
     1
 66
     1
 10
0.0
 20
0.0
 30
0.0
  0
VERTEX
  8
1
  6
DASHDOT
 62
     1
 10
25.99358500055878
 20
25.81040900024221
 30
0.0
  0
VERTEX
  8
1
  6
DASHDOT
 62
     1
 10
33.81691800055877
 20
25.81040900024221
 30
0.0
  0
VERTEX
  8
1
  6
DASHDOT
 62
     1
 10
33.81691800055877
 20
21.37449800024223
 30
0.0
  0
VERTEX
  8
1
  6
DASHDOT
 62
     1
 10
25.99358500055878
 20
21.37449800024223
 30
0.0
  0
VERTEX
  8
1
  6
DASHDOT
 62
     1
 10
25.99358500055878
 20
25.81040900024221
 30
0.0
  0
SEQEND
  8
1
  6
DASHDOT
 62
     1
  0
POLYLINE
  8
1
  6
CONTINUOUS
 62
     7
 66
     1
 10
0.0
 20
0.0
 30
0.0
  0
VERTEX
  8
1
  6
CONTINUOUS
 62
     7
 10
32.708952
 20
17.35386800020933
 30
0.0
  0
VERTEX
  8
1
  6
CONTINUOUS
 62
     7
 10
48.50895199999999
 20
17.35386800020933
 30
0.0
  0
VERTEX
  8
1
  6
CONTINUOUS
 62
     7
 10
48.50895199999999
 20
0.4611419998109341
 30
0.0
  0
VERTEX
  8
1
  6
CONTINUOUS
 62
     7
 10
32.708952
 20
0.4611419998109341
 30
0.0
  0
VERTEX
  8
1
  6
CONTINUOUS
 62
     7
 10
32.708952
 20
17.35386800020933
 30
0.0
  0
SEQEND
  8
1
  6
CONTINUOUS
 62
     7
  0
POLYLINE
  8
1
  6
CONTINUOUS
 62
     3
 66
     1
 10
0.0
 20
0.0
 30
0.0
  0
VERTEX
  8
1
  6
CONTINUOUS
 62
     3
 10
48.50895199999999
 20
1.090453794365061
 30
0.0
  0
VERTEX
  8
1
  6
CONTINUOUS
 62
     3
 10
47.41895199887455
 20
0.4611419998109341
 30
0.0
  0
VERTEX
  8
1
  6
CONTINUOUS
 62
     3
 10
48.50895199999999
 20
-0.1681697938145357
 30
0.0
  0
VERTEX
  8
1
  6
CONTINUOUS
 62
     3
 10
48.50895199999999
 20
1.090453794365061
 30
0.0
  0
SEQEND
  8
1
  6
CONTINUOUS
 62
     3
  0
POLYLINE
  8
1
  6
CONTINUOUS
 62
     3
 66
     1
 10
0.0
 20
0.0
 30
0.0
  0
VERTEX
  8
1
  6
CONTINUOUS
 62
     3
 10
48.50895199999999
 20
3.090453794365061
 30
0.0
  0
VERTEX
  8
1
  6
CONTINUOUS
 62
     3
 10
47.41895199887455
 20
2.461141999810934
 30
0.0
  0
VERTEX
  8
1
  6
CONTINUOUS
 62
     3
 10
48.50895199999999
 20
1.831830206185464
 30
0.0
  0
VERTEX
  8
1
  6
CONTINUOUS
 62
     3
 10
48.50895199999999
 20
3.090453794365061
 30
0.0
  0
SEQEND
  8
1
  6
CONTINUOUS
 62
     3
  0
POLYLINE
  8
1
  6
CONTINUOUS
 62
     3
 66
     1
 10
0.0
 20
0.0
 30
0.0
  0
VERTEX
  8
1
  6
CONTINUOUS
 62
     3
 10
48.50895199999999
 20
5.090453794365061
 30
0.0
  0
VERTEX
  8
1
  6
CONTINUOUS
 62
     3
 10
47.41895199887455
 20
4.461141999810934
 30
0.0
  0
VERTEX
  8
1
  6
CONTINUOUS
 62
     3
 10
48.50895199999999
 20
3.831830206185464
 30
0.0
  0
VERTEX
  8
1
  6
CONTINUOUS
 62
     3
 10
48.50895199999999
 20
5.090453794365061
 30
0.0
  0
SEQEND
  8
1
  6
CONTINUOUS
 62
     3
  0
POLYLINE
  8
1
  6
CONTINUOUS
 62
     3
 66
     1
 10
0.0
 20
0.0
 30
0.0
  0
VERTEX
  8
1
  6
CONTINUOUS
 62
     3
 10
48.50895199999999
 20
7.090453794365061
 30
0.0
  0
VERTEX
  8
1
  6
CONTINUOUS
 62
     3
 10
47.41895199887455
 20
6.461141999810934
 30
0.0
  0
VERTEX
  8
1
  6
CONTINUOUS
 62
     3
 10
48.50895199999999
 20
5.831830206185464
 30
0.0
  0
VERTEX
  8
1
  6
CONTINUOUS
 62
     3
 10
48.50895199999999
 20
7.090453794365061
 30
0.0
  0
SEQEND
  8
1
  6
CONTINUOUS
 62
     3
  0
POLYLINE
  8
1
  6
CONTINUOUS
 62
     3
 66
     1
 10
0.0
 20
0.0
 30
0.0
  0
VERTEX
  8
1
  6
CONTINUOUS
 62
     3
 10
48.50895199999999
 20
9.090453794365061
 30
0.0
  0
VERTEX
  8
1
  6
CONTINUOUS
 62
     3
 10
47.41895199887455
 20
8.461141999810934
 30
0.0
  0
VERTEX
  8
1
  6
CONTINUOUS
 62
     3
 10
48.50895199999999
 20
7.831830206185464
 30
0.0
  0
VERTEX
  8
1
  6
CONTINUOUS
 62
     3
 10
48.50895199999999
 20
9.090453794365061
 30
0.0
  0
SEQEND
  8
1
  6
CONTINUOUS
 62
     3
  0
POLYLINE
  8
1
  6
CONTINUOUS
 62
     3
 66
     1
 10
0.0
 20
0.0
 30
0.0
  0
VERTEX
  8
1
  6
CONTINUOUS
 62
     3
 10
48.50895199999999
 20
11.09045379436506
 30
0.0
  0
VERTEX
  8
1
  6
CONTINUOUS
 62
     3
 10
47.41895199887455
 20
10.46114199981093
 30
0.0
  0
VERTEX
  8
1
  6
CONTINUOUS
 62
     3
 10
48.50895199999999
 20
9.831830206185465
 30
0.0
  0
VERTEX
  8
1
  6
CONTINUOUS
 62
     3
 10
48.50895199999999
 20
11.09045379436506
 30
0.0
  0
SEQEND
  8
1
  6
CONTINUOUS
 62
     3
  0
POLYLINE
  8
1
  6
CONTINUOUS
 62
     3
 66
     1
 10
0.0
 20
0.0
 30
0.0
  0
VERTEX
  8
1
  6
CONTINUOUS
 62
     3
 10
48.50895199999999
 20
13.09045379436506
 30
0.0
  0
VERTEX
  8
1
  6
CONTINUOUS
 62
     3
 10
47.41895199887455
 20
12.46114199981093
 30
0.0
  0
VERTEX
  8
1
  6
CONTINUOUS
 62
     3
 10
48.50895199999999
 20
11.83183020618547
 30
0.0
  0
VERTEX
  8
1
  6
CONTINUOUS
 62
     3
 10
48.50895199999999
 20
13.09045379436506
 30
0.0
  0
SEQEND
  8
1
  6
CONTINUOUS
 62
     3
  0
POLYLINE
  8
1
  6
CONTINUOUS
 62
     3
 66
     1
 10
0.0
 20
0.0
 30
0.0
  0
VERTEX
  8
1
  6
CONTINUOUS
 62
     3
 10
48.50895199999999
 20
15.09045379622771
 30
0.0
  0
VERTEX
  8
1
  6
CONTINUOUS
 62
     3
 10
47.41895199887455
 20
14.46114200167358
 30
0.0
  0
VERTEX
  8
1
  6
CONTINUOUS
 62
     3
 10
48.50895199999999
 20
13.83183020804811
 30
0.0
  0
VERTEX
  8
1
  6
CONTINUOUS
 62
     3
 10
48.50895199999999
 20
15.09045379622771
 30
0.0
  0
SEQEND
  8
1
  6
CONTINUOUS
 62
     3
  0
POLYLINE
  8
1
  6
CONTINUOUS
 62
     3
 66
     1
 10
0.0
 20
0.0
 30
0.0
  0
VERTEX
  8
1
  6
CONTINUOUS
 62
     3
 10
48.50895199999999
 20
17.09045379809035
 30
0.0
  0
VERTEX
  8
1
  6
CONTINUOUS
 62
     3
 10
47.41895199887455
 20
16.46114200353622
 30
0.0
  0
VERTEX
  8
1
  6
CONTINUOUS
 62
     3
 10
48.50895199999999
 20
15.83183020991076
 30
0.0
  0
VERTEX
  8
1
  6
CONTINUOUS
 62
     3
 10
48.50895199999999
 20
17.09045379809035
 30
0.0
  0
SEQEND
  8
1
  6
CONTINUOUS
 62
     3
  0
POLYLINE
  8
1
  6
CONTINUOUS
 62
     3
 66
     1
 10
0.0
 20
0.0
 30
0.0
  0
VERTEX
  8
1
  6
CONTINUOUS
 62
     3
 10
32.7089519977491
 20
1.090453794365061
 30
0.0
  0
VERTEX
  8
1
  6
CONTINUOUS
 62
     3
 10
33.79895199887454
 20
0.4611419998109341
 30
0.0
  0
VERTEX
  8
1
  6
CONTINUOUS
 62
     3
 10
32.7089519977491
 20
-0.1681697938145357
 30
0.0
  0
VERTEX
  8
1
  6
CONTINUOUS
 62
     3
 10
32.7089519977491
 20
1.090453794365061
 30
0.0
  0
SEQEND
  8
1
  6
CONTINUOUS
 62
     3
  0
POLYLINE
  8
1
  6
CONTINUOUS
 62
     3
 66
     1
 10
0.0
 20
0.0
 30
0.0
  0
VERTEX
  8
1
  6
CONTINUOUS
 62
     3
 10
32.7089519977491
 20
3.090453794365061
 30
0.0
  0
VERTEX
  8
1
  6
CONTINUOUS
 62
     3
 10
33.79895199887454
 20
2.461141999810934
 30
0.0
  0
VERTEX
  8
1
  6
CONTINUOUS
 62
     3
 10
32.7089519977491
 20
1.831830206185464
 30
0.0
  0
VERTEX
  8
1
  6
CONTINUOUS
 62
     3
 10
32.7089519977491
 20
3.090453794365061
 30
0.0
  0
SEQEND
  8
1
  6
CONTINUOUS
 62
     3
  0
POLYLINE
  8
1
  6
CONTINUOUS
 62
     3
 66
     1
 10
0.0
 20
0.0
 30
0.0
  0
VERTEX
  8
1
  6
CONTINUOUS
 62
     3
 10
32.7089519977491
 20
5.090453794365061
 30
0.0
  0
VERTEX
  8
1
  6
CONTINUOUS
 62
     3
 10
33.79895199887454
 20
4.461141999810934
 30
0.0
  0
VERTEX
  8
1
  6
CONTINUOUS
 62
     3
 10
32.7089519977491
 20
3.831830206185464
 30
0.0
  0
VERTEX
  8
1
  6
CONTINUOUS
 62
     3
 10
32.7089519977491
 20
5.090453794365061
 30
0.0
  0
SEQEND
  8
1
  6
CONTINUOUS
 62
     3
  0
POLYLINE
  8
1
  6
CONTINUOUS
 62
     3
 66
     1
 10
0.0
 20
0.0
 30
0.0
  0
VERTEX
  8
1
  6
CONTINUOUS
 62
     3
 10
32.7089519977491
 20
7.090453794365061
 30
0.0
  0
VERTEX
  8
1
  6
CONTINUOUS
 62
     3
 10
33.79895199887454
 20
6.461141999810934
 30
0.0
  0
VERTEX
  8
1
  6
CONTINUOUS
 62
     3
 10
32.7089519977491
 20
5.831830206185464
 30
0.0
  0
VERTEX
  8
1
  6
CONTINUOUS
 62
     3
 10
32.7089519977491
 20
7.090453794365061
 30
0.0
  0
SEQEND
  8
1
  6
CONTINUOUS
 62
     3
  0
POLYLINE
  8
1
  6
CONTINUOUS
 62
     3
 66
     1
 10
0.0
 20
0.0
 30
0.0
  0
VERTEX
  8
1
  6
CONTINUOUS
 62
     3
 10
32.7089519977491
 20
9.090453794365061
 30
0.0
  0
VERTEX
  8
1
  6
CONTINUOUS
 62
     3
 10
33.79895199887454
 20
8.461141999810934
 30
0.0
  0
VERTEX
  8
1
  6
CONTINUOUS
 62
     3
 10
32.7089519977491
 20
7.831830206185464
 30
0.0
  0
VERTEX
  8
1
  6
CONTINUOUS
 62
     3
 10
32.7089519977491
 20
9.090453794365061
 30
0.0
  0
SEQEND
  8
1
  6
CONTINUOUS
 62
     3
  0
POLYLINE
  8
1
  6
CONTINUOUS
 62
     3
 66
     1
 10
0.0
 20
0.0
 30
0.0
  0
VERTEX
  8
1
  6
CONTINUOUS
 62
     3
 10
32.7089519977491
 20
11.09045379436506
 30
0.0
  0
VERTEX
  8
1
  6
CONTINUOUS
 62
     3
 10
33.79895199887454
 20
10.46114199981093
 30
0.0
  0
VERTEX
  8
1
  6
CONTINUOUS
 62
     3
 10
32.7089519977491
 20
9.831830206185465
 30
0.0
  0
VERTEX
  8
1
  6
CONTINUOUS
 62
     3
 10
32.7089519977491
 20
11.09045379436506
 30
0.0
  0
SEQEND
  8
1
  6
CONTINUOUS
 62
     3
  0
POLYLINE
  8
1
  6
CONTINUOUS
 62
     3
 66
     1
 10
0.0
 20
0.0
 30
0.0
  0
VERTEX
  8
1
  6
CONTINUOUS
 62
     3
 10
32.7089519977491
 20
13.09045379436506
 30
0.0
  0
VERTEX
  8
1
  6
CONTINUOUS
 62
     3
 10
33.79895199887454
 20
12.46114199981093
 30
0.0
  0
VERTEX
  8
1
  6
CONTINUOUS
 62
     3
 10
32.7089519977491
 20
11.83183020618547
 30
0.0
  0
VERTEX
  8
1
  6
CONTINUOUS
 62
     3
 10
32.7089519977491
 20
13.09045379436506
 30
0.0
  0
SEQEND
  8
1
  6
CONTINUOUS
 62
     3
  0
POLYLINE
  8
1
  6
CONTINUOUS
 62
     3
 66
     1
 10
0.0
 20
0.0
 30
0.0
  0
VERTEX
  8
1
  6
CONTINUOUS
 62
     3
 10
32.7089519977491
 20
15.09045379622771
 30
0.0
  0
VERTEX
  8
1
  6
CONTINUOUS
 62
     3
 10
33.79895199887454
 20
14.46114200167358
 30
0.0
  0
VERTEX
  8
1
  6
CONTINUOUS
 62
     3
 10
32.7089519977491
 20
13.83183020804811
 30
0.0
  0
VERTEX
  8
1
  6
CONTINUOUS
 62
     3
 10
32.7089519977491
 20
15.09045379622771
 30
0.0
  0
SEQEND
  8
1
  6
CONTINUOUS
 62
     3
  0
POLYLINE
  8
1
  6
CONTINUOUS
 62
     3
 66
     1
 10
0.0
 20
0.0
 30
0.0
  0
VERTEX
  8
1
  6
CONTINUOUS
 62
     3
 10
32.7089519977491
 20
17.09045379809035
 30
0.0
  0
VERTEX
  8
1
  6
CONTINUOUS
 62
     3
 10
33.79895199887454
 20
16.46114200353622
 30
0.0
  0
VERTEX
  8
1
  6
CONTINUOUS
 62
     3
 10
32.7089519977491
 20
15.83183020991076
 30
0.0
  0
VERTEX
  8
1
  6
CONTINUOUS
 62
     3
 10
32.7089519977491
 20
17.09045379809035
 30
0.0
  0
SEQEND
  8
1
  6
CONTINUOUS
 62
     3
  0
POLYLINE
  8
1
  6
CONTINUOUS
 62
     3
 66
     1
 10
0.0
 20
0.0
 30
0.0
  0
VERTEX
  8
1
  6
CONTINUOUS
 62
     3
 10
48.50895199999999
 20
-21.75060620517539
 30
0.0
  0
VERTEX
  8
1
  6
CONTINUOUS
 62
     3
 10
47.41895199887455
 20
-22.37991799972951
 30
0.0
  0
VERTEX
  8
1
  6
CONTINUOUS
 62
     3
 10
48.50895199999999
 20
-23.00922979335498
 30
0.0
  0
VERTEX
  8
1
  6
CONTINUOUS
 62
     3
 10
48.50895199999999
 20
-21.75060620517539
 30
0.0
  0
SEQEND
  8
1
  6
CONTINUOUS
 62
     3
  0
POLYLINE
  8
1
  6
DOT
 62
     7
 66
     1
 10
0.0
 20
0.0
 30
0.0
  0
VERTEX
  8
1
  6
DOT
 62
     7
 10
-140.5449030011254
 20
-82.94187199883163
 30
0.0
  0
VERTEX
  8
1
  6
DOT
 62
     7
 10
-122.1449030004442
 20
-82.9418719997295
 30
0.0
  0
VERTEX
  8
1
  6
DOT
 62
     7
 10
-122.1449030004442
 20
-102.9418719994873
 30
0.0
  0
VERTEX
  8
1
  6
DOT
 62
     7
 10
-140.5449030011254
 20
-102.9418719985894
 30
0.0
  0
VERTEX
  8
1
  6
DOT
 62
     7
 10
-140.5449030011254
 20
-82.94187199883163
 30
0.0
  0
SEQEND
  8
1
  6
DOT
 62
     7
  0
POLYLINE
  8
1
  6
CONTINUOUS
 62
     1
 66
     1
 10
0.0
 20
0.0
 30
0.0
  0
VERTEX
  8
1
  6
CONTINUOUS
 62
     1
 10
-122.1449030004442
 20
-103.6289188172668
 30
0.0
  0
VERTEX
  8
1
  6
CONTINUOUS
 62
     1
 10
-122.1449030004442
 20
-102.2548251773509
 30
0.0
  0
VERTEX
  8
1
  6
CONTINUOUS
 62
     1
 10
-123.3349030017853
 20
-102.9418719979003
 30
0.0
  0
VERTEX
  8
1
  6
CONTINUOUS
 62
     1
 10
-122.1449030004442
 20
-103.6289188172668
 30
0.0
  0
SEQEND
  8
1
  6
CONTINUOUS
 62
     1
  0
POLYLINE
  8
1
  6
DASHDOT
 62
     1
 66
     1
 10
0.0
 20
0.0
 30
0.0
  0
VERTEX
  8
1
  6
DASHDOT
 62
     1
 10
-145.9602699994412
 20
-54.75154499975778
 30
0.0
  0
VERTEX
  8
1
  6
DASHDOT
 62
     1
 10
-138.1369369994412
 20
-54.75154499975778
 30
0.0
  0
VERTEX
  8
1
  6
DASHDOT
 62
     1
 10
-138.1369369994412
 20
-59.18745599975776
 30
0.0
  0
VERTEX
  8
1
  6
DASHDOT
 62
     1
 10
-145.9602699994412
 20
-59.18745599975776
 30
0.0
  0
VERTEX
  8
1
  6
DASHDOT
 62
     1
 10
-145.9602699994412
 20
-54.75154499975778
 30
0.0
  0
SEQEND
  8
1
  6
DASHDOT
 62
     1
  0
POLYLINE
  8
1
  6
CONTINUOUS
 62
     3
 66
     1
 10
0.0
 20
0.0
 30
0.0
  0
VERTEX
  8
1
  6
CONTINUOUS
 62
     3
 10
-122.4449030011892
 20
-80.90332887414843
 30
0.0
  0
VERTEX
  8
1
  6
CONTINUOUS
 62
     3
 10
-122.4449030011892
 20
-79.2982951272279
 30
0.0
  0
VERTEX
  8
1
  6
CONTINUOUS
 62
     3
 10
-123.8349030011255
 20
-80.10081200115383
 30
0.0
  0
VERTEX
  8
1
  6
CONTINUOUS
 62
     3
 10
-122.4449030011892
 20
-80.90332887414843
 30
0.0
  0
SEQEND
  8
1
  6
CONTINUOUS
 62
     3
  0
POLYLINE
  8
1
  6
CONTINUOUS
 62
     7
 66
     1
 10
0.0
 20
0.0
 30
0.0
  0
VERTEX
  8
1
  6
CONTINUOUS
 62
     7
 10
-140.2449030019343
 20
-63.20808599979065
 30
0.0
  0
VERTEX
  8
1
  6
CONTINUOUS
 62
     7
 10
-122.4449030011255
 20
-63.20808599979065
 30
0.0
  0
VERTEX
  8
1
  6
CONTINUOUS
 62
     7
 10
-122.4449030011255
 20
-80.10081200115383
 30
0.0
  0
VERTEX
  8
1
  6
CONTINUOUS
 62
     7
 10
-140.2449030019343
 20
-80.10081200115383
 30
0.0
  0
VERTEX
  8
1
  6
CONTINUOUS
 62
     7
 10
-140.2449030019343
 20
-63.20808599979065
 30
0.0
  0
SEQEND
  8
1
  6
CONTINUOUS
 62
     7
  0
POLYLINE
  8
1
  6
CONTINUOUS
 62
     7
 66
     1
 10
0.0
 20
0.0
 30
0.0
  0
VERTEX
  8
1
  6
CONTINUOUS
 62
     7
 10
-143.8449030015618
 20
-82.94187199883163
 30
0.0
  0
VERTEX
  8
1
  6
CONTINUOUS
 62
     7
 10
-118.8449030015618
 20
-82.94187199883163
 30
0.0
  0
VERTEX
  8
1
  6
CONTINUOUS
 62
     7
 10
-118.8449030015618
 20
-102.9418719988316
 30
0.0
  0
VERTEX
  8
1
  6
CONTINUOUS
 62
     7
 10
-143.8449030015618
 20
-102.9418719988316
 30
0.0
  0
VERTEX
  8
1
  6
CONTINUOUS
 62
     7
 10
-143.8449030015618
 20
-82.94187199883163
 30
0.0
  0
SEQEND
  8
1
  6
CONTINUOUS
 62
     7
  0
POLYLINE
  8
1
  6
CONTINUOUS
 62
     3
 66
     1
 10
0.0
 20
0.0
 30
0.0
  0
VERTEX
  8
1
  6
CONTINUOUS
 62
     3
 10
-122.4449030011892
 20
-103.7443888720329
 30
0.0
  0
VERTEX
  8
1
  6
CONTINUOUS
 62
     3
 10
-122.4449030011892
 20
-102.1393551251124
 30
0.0
  0
VERTEX
  8
1
  6
CONTINUOUS
 62
     3
 10
-123.8349030011255
 20
-102.9418719990383
 30
0.0
  0
VERTEX
  8
1
  6
CONTINUOUS
 62
     3
 10
-122.4449030011892
 20
-103.7443888720329
 30
0.0
  0
SEQEND
  8
1
  6
CONTINUOUS
 62
     3
  0
LINE
  8
1
  6
BORDER
 62
     4
 10
-139.0544120101537
 20
92.55145600739326
 30
0.0
 11
-139.0544120101537
 21
117.4521959999999
 31
0.0
  0
POLYLINE
  8
1
  6
CONTINUOUS
 62
     7
 66
     1
 10
0.0
 20
0.0
 30
0.0
  0
VERTEX
  8
1
  6
CONTINUOUS
 62
     7
 10
-110.0544120101532
 20
117.4521959999999
 30
0.0
  0
VERTEX
  8
1
  6
CONTINUOUS
 62
     7
 10
-110.0544120101532
 20
92.55145600307657
 30
0.0
  0
VERTEX
  8
1
  6
CONTINUOUS
 62
     7
 10
-168.0544120101537
 20
92.55145600307657
 30
0.0
  0
VERTEX
  8
1
  6
CONTINUOUS
 62
     7
 10
-168.0544120101537
 20
117.4521959999999
 30
0.0
  0
SEQEND
  8
1
  6
CONTINUOUS
 62
     7
  0
POLYLINE
  8
1
  6
HIDDEN
 62
     3
 66
     1
 10
0.0
 20
0.0
 30
0.0
  0
VERTEX
  8
1
  6
HIDDEN
 62
     3
 10
-236.891656
 20
99.04019699999999
 30
0.0
  0
VERTEX
  8
1
  6
HIDDEN
 62
     3
 10
-227.398336
 20
99.04019699999999
 30
0.0
  0
VERTEX
  8
1
  6
HIDDEN
 62
     3
 10
-227.398336
 20
104.617522
 30
0.0
  0
VERTEX
  8
1
  6
HIDDEN
 62
     3
 10
-236.891656
 20
104.617522
 30
0.0
  0
VERTEX
  8
1
  6
HIDDEN
 62
     3
 10
-236.891656
 20
99.04019699999999
 30
0.0
  0
SEQEND
  8
1
  6
HIDDEN
 62
     3
  0
POLYLINE
  8
1
  6
BORDER
 62
     4
 66
     1
 10
0.0
 20
0.0
 30
0.0
  0
VERTEX
  8
1
  6
BORDER
 62
     4
 10
-181.6394020000001
 20
61.67894600000002
 30
0.0
  0
VERTEX
  8
1
  6
BORDER
 62
     4
 10
-86.70620200000025
 20
61.67894600000002
 30
0.0
  0
VERTEX
  8
1
  6
BORDER
 62
     4
 10
-86.70620200000025
 20
117.452196
 30
0.0
  0
VERTEX
  8
1
  6
BORDER
 62
     4
 10
-181.6394020000001
 20
117.452196
 30
0.0
  0
VERTEX
  8
1
  6
BORDER
 62
     4
 10
-181.6394020000001
 20
61.67894600000002
 30
0.0
  0
SEQEND
  8
1
  6
BORDER
 62
     4
  0
POLYLINE
  8
1
  6
CONTINUOUS
 62
     2
 66
     1
 10
0.0
 20
0.0
 30
0.0
  0
VERTEX
  8
1
  6
CONTINUOUS
 62
     2
 10
-94.18704700101537
 20
-1.1856
 30
0.0
  0
VERTEX
  8
1
  6
CONTINUOUS
 62
     2
 10
-94.78704700101537
 20
-0.9356
 30
0.0
  0
VERTEX
  8
1
  6
CONTINUOUS
 62
     2
 10
-94.78704700101537
 20
-1.4356
 30
0.0
  0
VERTEX
  8
1
  6
CONTINUOUS
 62
     2
 10
-94.18704700101537
 20
-1.1856
 30
0.0
  0
SEQEND
  8
1
  6
CONTINUOUS
 62
     2
  0
LINE
  8
1
  6
CONTINUOUS
 62
     2
 10
-94.78704700101537
 20
-1.1856
 30
0.0
 11
-95.78704700101537
 21
-1.1856
 31
0.0
  0
POLYLINE
  8
1
  6
CONTINUOUS
 62
     2
 66
     1
 10
0.0
 20
0.0
 30
0.0
  0
VERTEX
  8
1
  6
CONTINUOUS
 62
     2
 10
-91.28704700101537
 20
-1.1856
 30
0.0
  0
VERTEX
  8
1
  6
CONTINUOUS
 62
     2
 10
-90.68704700101537
 20
-1.4356
 30
0.0
  0
VERTEX
  8
1
  6
CONTINUOUS
 62
     2
 10
-90.68704700101537
 20
-0.9356
 30
0.0
  0
VERTEX
  8
1
  6
CONTINUOUS
 62
     2
 10
-91.28704700101537
 20
-1.1856
 30
0.0
  0
SEQEND
  8
1
  6
CONTINUOUS
 62
     2
  0
LINE
  8
1
  6
CONTINUOUS
 62
     2
 10
-90.68704700101537
 20
-1.1856
 30
0.0
 11
-89.68704700101537
 21
-1.1856
 31
0.0
  0
LINE
  8
1
  6
CONTINUOUS
 62
     2
 10
-94.18704700101537
 20
-1.1856
 30
0.0
 11
-91.28704700101537
 21
-1.1856
 31
0.0
  0
POLYLINE
  8
1
  6
CONTINUOUS
 62
     2
 66
     1
 10
0.0
 20
0.0
 30
0.0
  0
VERTEX
  8
1
  6
CONTINUOUS
 62
     2
 10
-94.18704700101537
 20
0.1611420003076603
 30
0.0
  0
VERTEX
  8
1
  6
CONTINUOUS
 62
     2
 10
-94.18704700101537
 20
-1.6856
 30
0.0
  0
SEQEND
  8
1
  6
CONTINUOUS
 62
     2
  0
POLYLINE
  8
1
  6
CONTINUOUS
 62
     2
 66
     1
 10
0.0
 20
0.0
 30
0.0
  0
VERTEX
  8
1
  6
CONTINUOUS
 62
     2
 10
-91.28704700101537
 20
-0.1275331335701992
 30
0.0
  0
VERTEX
  8
1
  6
CONTINUOUS
 62
     2
 10
-91.28704700101537
 20
-1.6856
 30
0.0
  0
SEQEND
  8
1
  6
CONTINUOUS
 62
     2
  0
TEXT
  8
1
  6
CONTINUOUS
 62
     7
 10
-93.61204700101537
 20
-0.9856
 30
0.0
 40
1.0
  1
2
 41
0.5
  7
EXCESS_STANDARD
  0
TEXT
  8
1
  6
CONTINUOUS
 62
     7
 10
-93.11204700101537
 20
-0.9856
 30
0.0
 40
1.0
  1
.
 41
0.5
  7
EXCESS_STANDARD
  0
TEXT
  8
1
  6
CONTINUOUS
 62
     7
 10
-92.86204700101537
 20
-0.9856
 30
0.0
 40
1.0
  1
9
 41
0.5
  7
EXCESS_STANDARD
  0
TEXT
  8
1
  6
CONTINUOUS
 62
     7
 10
-92.36204700101537
 20
-0.9856
 30
0.0
 40
1.0
  1
0
 41
0.5
  7
EXCESS_STANDARD
  0
POLYLINE
  8
1
  6
CONTINUOUS
 62
     2
 66
     1
 10
0.0
 20
0.0
 30
0.0
  0
VERTEX
  8
1
  6
CONTINUOUS
 62
     2
 10
-71.6092410004155
 20
0.7896839999999941
 30
0.0
  0
VERTEX
  8
1
  6
CONTINUOUS
 62
     2
 10
-71.0092410004155
 20
0.539683999999994
 30
0.0
  0
VERTEX
  8
1
  6
CONTINUOUS
 62
     2
 10
-71.0092410004155
 20
1.039683999999994
 30
0.0
  0
VERTEX
  8
1
  6
CONTINUOUS
 62
     2
 10
-71.6092410004155
 20
0.7896839999999941
 30
0.0
  0
SEQEND
  8
1
  6
CONTINUOUS
 62
     2
  0
POLYLINE
  8
1
  6
CONTINUOUS
 62
     2
 66
     1
 10
0.0
 20
0.0
 30
0.0
  0
VERTEX
  8
1
  6
CONTINUOUS
 62
     2
 10
-68.35924100255573
 20
0.7896839999999941
 30
0.0
  0
VERTEX
  8
1
  6
CONTINUOUS
 62
     2
 10
-68.95924100255573
 20
1.039683999999994
 30
0.0
  0
VERTEX
  8
1
  6
CONTINUOUS
 62
     2
 10
-68.95924100255573
 20
0.5396839999999941
 30
0.0
  0
VERTEX
  8
1
  6
CONTINUOUS
 62
     2
 10
-68.35924100255573
 20
0.7896839999999941
 30
0.0
  0
SEQEND
  8
1
  6
CONTINUOUS
 62
     2
  0
LINE
  8
1
  6
CONTINUOUS
 62
     2
 10
-71.0092410004155
 20
0.789683999999994
 30
0.0
 11
-68.95924100255573
 21
0.7896839999999941
 31
0.0
  0
POLYLINE
  8
1
  6
CONTINUOUS
 62
     2
 66
     1
 10
0.0
 20
0.0
 30
0.0
  0
VERTEX
  8
1
  6
CONTINUOUS
 62
     2
 10
-71.6092410004155
 20
0.7611420003076603
 30
0.0
  0
VERTEX
  8
1
  6
CONTINUOUS
 62
     2
 10
-71.6092410004155
 20
1.289683999999994
 30
0.0
  0
SEQEND
  8
1
  6
CONTINUOUS
 62
     2
  0
POLYLINE
  8
1
  6
CONTINUOUS
 62
     2
 66
     1
 10
0.0
 20
0.0
 30
0.0
  0
VERTEX
  8
1
  6
CONTINUOUS
 62
     2
 10
-68.35924100255573
 20
0.7611420003076603
 30
0.0
  0
VERTEX
  8
1
  6
CONTINUOUS
 62
     2
 10
-68.35924100255573
 20
1.289683999999994
 30
0.0
  0
SEQEND
  8
1
  6
CONTINUOUS
 62
     2
  0
TEXT
  8
1
  6
CONTINUOUS
 62
     7
 10
-70.85924100148561
 20
0.989683999999994
 30
0.0
 40
1.0
  1
3
 41
0.5
  7
EXCESS_STANDARD
  0
TEXT
  8
1
  6
CONTINUOUS
 62
     7
 10
-70.35924100148561
 20
0.989683999999994
 30
0.0
 40
1.0
  1
.
 41
0.5
  7
EXCESS_STANDARD
  0
TEXT
  8
1
  6
CONTINUOUS
 62
     7
 10
-70.10924100148561
 20
0.989683999999994
 30
0.0
 40
1.0
  1
2
 41
0.5
  7
EXCESS_STANDARD
  0
TEXT
  8
1
  6
CONTINUOUS
 62
     7
 10
-69.60924100148561
 20
0.989683999999994
 30
0.0
 40
1.0
  1
5
 41
0.5
  7
EXCESS_STANDARD
  0
POLYLINE
  8
1
  6
CONTINUOUS
 62
     2
 66
     1
 10
0.0
 20
0.0
 30
0.0
  0
VERTEX
  8
1
  6
CONTINUOUS
 62
     2
 10
-71.6092410004155
 20
-26.480355
 30
0.0
  0
VERTEX
  8
1
  6
CONTINUOUS
 62
     2
 10
-71.0092410004155
 20
-26.730355
 30
0.0
  0
VERTEX
  8
1
  6
CONTINUOUS
 62
     2
 10
-71.0092410004155
 20
-26.230355
 30
0.0
  0
VERTEX
  8
1
  6
CONTINUOUS
 62
     2
 10
-71.6092410004155
 20
-26.480355
 30
0.0
  0
SEQEND
  8
1
  6
CONTINUOUS
 62
     2
  0
POLYLINE
  8
1
  6
CONTINUOUS
 62
     2
 66
     1
 10
0.0
 20
0.0
 30
0.0
  0
VERTEX
  8
1
  6
CONTINUOUS
 62
     2
 10
-67.40924100041549
 20
-26.480355
 30
0.0
  0
VERTEX
  8
1
  6
CONTINUOUS
 62
     2
 10
-68.00924100041549
 20
-26.230355
 30
0.0
  0
VERTEX
  8
1
  6
CONTINUOUS
 62
     2
 10
-68.00924100041549
 20
-26.730355
 30
0.0
  0
VERTEX
  8
1
  6
CONTINUOUS
 62
     2
 10
-67.40924100041549
 20
-26.480355
 30
0.0
  0
SEQEND
  8
1
  6
CONTINUOUS
 62
     2
  0
LINE
  8
1
  6
CONTINUOUS
 62
     2
 10
-71.0092410004155
 20
-26.480355
 30
0.0
 11
-68.00924100041549
 21
-26.480355
 31
0.0
  0
POLYLINE
  8
1
  6
CONTINUOUS
 62
     2
 66
     1
 10
0.0
 20
0.0
 30
0.0
  0
VERTEX
  8
1
  6
CONTINUOUS
 62
     2
 10
-71.6092410004155
 20
-22.67991799923279
 30
0.0
  0
VERTEX
  8
1
  6
CONTINUOUS
 62
     2
 10
-71.6092410004155
 20
-26.980355
 30
0.0
  0
SEQEND
  8
1
  6
CONTINUOUS
 62
     2
  0
POLYLINE
  8
1
  6
CONTINUOUS
 62
     2
 66
     1
 10
0.0
 20
0.0
 30
0.0
  0
VERTEX
  8
1
  6
CONTINUOUS
 62
     2
 10
-67.40924100041549
 20
-23.40160583281899
 30
0.0
  0
VERTEX
  8
1
  6
CONTINUOUS
 62
     2
 10
-67.40924100041549
 20
-26.980355
 30
0.0
  0
SEQEND
  8
1
  6
CONTINUOUS
 62
     2
  0
TEXT
  8
1
  6
CONTINUOUS
 62
     7
 10
-70.3842410004155
 20
-26.280355
 30
0.0
 40
1.0
  1
4
 41
0.5
  7
EXCESS_STANDARD
  0
TEXT
  8
1
  6
CONTINUOUS
 62
     7
 10
-69.8842410004155
 20
-26.280355
 30
0.0
 40
1.0
  1
.
 41
0.5
  7
EXCESS_STANDARD
  0
TEXT
  8
1
  6
CONTINUOUS
 62
     7
 10
-69.6342410004155
 20
-26.280355
 30
0.0
 40
1.0
  1
2
 41
0.5
  7
EXCESS_STANDARD
  0
TEXT
  8
1
  6
CONTINUOUS
 62
     7
 10
-69.1342410004155
 20
-26.280355
 30
0.0
 40
1.0
  1
0
 41
0.5
  7
EXCESS_STANDARD
  0
POLYLINE
  8
1
  6
CONTINUOUS
 62
     2
 66
     1
 10
0.0
 20
0.0
 30
0.0
  0
VERTEX
  8
1
  6
CONTINUOUS
 62
     2
 10
-97.08704700101538
 20
19.23251099999999
 30
0.0
  0
VERTEX
  8
1
  6
CONTINUOUS
 62
     2
 10
-96.88704700101538
 20
19.13251099999999
 30
0.0
  0
VERTEX
  8
1
  6
CONTINUOUS
 62
     2
 10
-96.88704700101538
 20
19.33251099999999
 30
0.0
  0
VERTEX
  8
1
  6
CONTINUOUS
 62
     2
 10
-97.08704700101538
 20
19.23251099999999
 30
0.0
  0
SEQEND
  8
1
  6
CONTINUOUS
 62
     2
  0
POLYLINE
  8
1
  6
CONTINUOUS
 62
     2
 66
     1
 10
0.0
 20
0.0
 30
0.0
  0
VERTEX
  8
1
  6
CONTINUOUS
 62
     2
 10
-91.28704700101537
 20
19.23251099999999
 30
0.0
  0
VERTEX
  8
1
  6
CONTINUOUS
 62
     2
 10
-91.48704700101537
 20
19.33251099999999
 30
0.0
  0
VERTEX
  8
1
  6
CONTINUOUS
 62
     2
 10
-91.48704700101537
 20
19.13251099999999
 30
0.0
  0
VERTEX
  8
1
  6
CONTINUOUS
 62
     2
 10
-91.28704700101537
 20
19.23251099999999
 30
0.0
  0
SEQEND
  8
1
  6
CONTINUOUS
 62
     2
  0
LINE
  8
1
  6
CONTINUOUS
 62
     2
 10
-96.88704700101538
 20
19.23251099999999
 30
0.0
 11
-91.48704700101537
 21
19.23251099999999
 31
0.0
  0
POLYLINE
  8
1
  6
CONTINUOUS
 62
     2
 66
     1
 10
0.0
 20
0.0
 30
0.0
  0
VERTEX
  8
1
  6
CONTINUOUS
 62
     2
 10
-97.08704700101538
 20
17.65386799996709
 30
0.0
  0
VERTEX
  8
1
  6
CONTINUOUS
 62
     2
 10
-97.08704700101538
 20
19.73251099999999
 30
0.0
  0
SEQEND
  8
1
  6
CONTINUOUS
 62
     2
  0
POLYLINE
  8
1
  6
CONTINUOUS
 62
     2
 66
     1
 10
0.0
 20
0.0
 30
0.0
  0
VERTEX
  8
1
  6
CONTINUOUS
 62
     2
 10
-91.28704700101537
 20
17.65386799996709
 30
0.0
  0
VERTEX
  8
1
  6
CONTINUOUS
 62
     2
 10
-91.28704700101537
 20
19.73251099999999
 30
0.0
  0
SEQEND
  8
1
  6
CONTINUOUS
 62
     2
  0
TEXT
  8
1
  6
CONTINUOUS
 62
     7
 10
-95.06204700101537
 20
19.43251099999999
 30
0.0
 40
1.0
  1
5
 41
0.5
  7
EXCESS_STANDARD
  0
TEXT
  8
1
  6
CONTINUOUS
 62
     7
 10
-94.56204700101537
 20
19.43251099999999
 30
0.0
 40
1.0
  1
.
 41
0.5
  7
EXCESS_STANDARD
  0
TEXT
  8
1
  6
CONTINUOUS
 62
     7
 10
-94.31204700101537
 20
19.43251099999999
 30
0.0
 40
1.0
  1
8
 41
0.5
  7
EXCESS_STANDARD
  0
TEXT
  8
1
  6
CONTINUOUS
 62
     7
 10
-93.81204700101537
 20
19.43251099999999
 30
0.0
 40
1.0
  1
0
 41
0.5
  7
EXCESS_STANDARD
  0
POLYLINE
  8
1
  6
CONTINUOUS
 62
     2
 66
     1
 10
0.0
 20
0.0
 30
0.0
  0
VERTEX
  8
1
  6
CONTINUOUS
 62
     2
 10
-71.6092410004155
 20
-1.217824000000007
 30
0.0
  0
VERTEX
  8
1
  6
CONTINUOUS
 62
     2
 10
-71.40924100041549
 20
-1.317824000000007
 30
0.0
  0
VERTEX
  8
1
  6
CONTINUOUS
 62
     2
 10
-71.40924100041549
 20
-1.117824000000007
 30
0.0
  0
VERTEX
  8
1
  6
CONTINUOUS
 62
     2
 10
-71.6092410004155
 20
-1.217824000000007
 30
0.0
  0
SEQEND
  8
1
  6
CONTINUOUS
 62
     2
  0
POLYLINE
  8
1
  6
CONTINUOUS
 62
     2
 66
     1
 10
0.0
 20
0.0
 30
0.0
  0
VERTEX
  8
1
  6
CONTINUOUS
 62
     2
 10
-67.70924100041549
 20
-1.217824000000007
 30
0.0
  0
VERTEX
  8
1
  6
CONTINUOUS
 62
     2
 10
-67.90924100041549
 20
-1.117824000000007
 30
0.0
  0
VERTEX
  8
1
  6
CONTINUOUS
 62
     2
 10
-67.90924100041549
 20
-1.317824000000007
 30
0.0
  0
VERTEX
  8
1
  6
CONTINUOUS
 62
     2
 10
-67.70924100041549
 20
-1.217824000000007
 30
0.0
  0
SEQEND
  8
1
  6
CONTINUOUS
 62
     2
  0
LINE
  8
1
  6
CONTINUOUS
 62
     2
 10
-71.40924100041549
 20
-1.217824000000007
 30
0.0
 11
-67.90924100041549
 21
-1.217824000000007
 31
0.0
  0
POLYLINE
  8
1
  6
CONTINUOUS
 62
     2
 66
     1
 10
0.0
 20
0.0
 30
0.0
  0
VERTEX
  8
1
  6
CONTINUOUS
 62
     2
 10
-71.6092410004155
 20
0.1611419995686958
 30
0.0
  0
VERTEX
  8
1
  6
CONTINUOUS
 62
     2
 10
-71.6092410004155
 20
-1.717824000000007
 30
0.0
  0
SEQEND
  8
1
  6
CONTINUOUS
 62
     2
  0
POLYLINE
  8
1
  6
CONTINUOUS
 62
     2
 66
     1
 10
0.0
 20
0.0
 30
0.0
  0
VERTEX
  8
1
  6
CONTINUOUS
 62
     2
 10
-67.70924100041549
 20
-0.2141356771122844
 30
0.0
  0
VERTEX
  8
1
  6
CONTINUOUS
 62
     2
 10
-67.70924100041549
 20
-1.717824000000007
 30
0.0
  0
SEQEND
  8
1
  6
CONTINUOUS
 62
     2
  0
TEXT
  8
1
  6
CONTINUOUS
 62
     7
 10
-70.53424100041549
 20
-1.017824000000007
 30
0.0
 40
1.0
  1
3
 41
0.5
  7
EXCESS_STANDARD
  0
TEXT
  8
1
  6
CONTINUOUS
 62
     7
 10
-70.03424100041549
 20
-1.017824000000007
 30
0.0
 40
1.0
  1
.
 41
0.5
  7
EXCESS_STANDARD
  0
TEXT
  8
1
  6
CONTINUOUS
 62
     7
 10
-69.78424100041549
 20
-1.017824000000007
 30
0.0
 40
1.0
  1
9
 41
0.5
  7
EXCESS_STANDARD
  0
TEXT
  8
1
  6
CONTINUOUS
 62
     7
 10
-69.28424100041549
 20
-1.017824000000007
 30
0.0
 40
1.0
  1
0
 41
0.5
  7
EXCESS_STANDARD
  0
POLYLINE
  8
1
  6
CONTINUOUS
 62
     2
 66
     1
 10
0.0
 20
0.0
 30
0.0
  0
VERTEX
  8
1
  6
CONTINUOUS
 62
     2
 10
-75.50924100983711
 20
17.76300499999999
 30
0.0
  0
VERTEX
  8
1
  6
CONTINUOUS
 62
     2
 10
-75.30924100983711
 20
17.66300499999999
 30
0.0
  0
VERTEX
  8
1
  6
CONTINUOUS
 62
     2
 10
-75.30924100983711
 20
17.86300499999999
 30
0.0
  0
VERTEX
  8
1
  6
CONTINUOUS
 62
     2
 10
-75.50924100983711
 20
17.76300499999999
 30
0.0
  0
SEQEND
  8
1
  6
CONTINUOUS
 62
     2
  0
POLYLINE
  8
1
  6
CONTINUOUS
 62
     2
 66
     1
 10
0.0
 20
0.0
 30
0.0
  0
VERTEX
  8
1
  6
CONTINUOUS
 62
     2
 10
-67.70924100041549
 20
17.76300499999999
 30
0.0
  0
VERTEX
  8
1
  6
CONTINUOUS
 62
     2
 10
-67.90924100041549
 20
17.86300499999999
 30
0.0
  0
VERTEX
  8
1
  6
CONTINUOUS
 62
     2
 10
-67.90924100041549
 20
17.66300499999999
 30
0.0
  0
VERTEX
  8
1
  6
CONTINUOUS
 62
     2
 10
-67.70924100041549
 20
17.76300499999999
 30
0.0
  0
SEQEND
  8
1
  6
CONTINUOUS
 62
     2
  0
LINE
  8
1
  6
CONTINUOUS
 62
     2
 10
-75.30924100983711
 20
17.76300499999999
 30
0.0
 11
-67.90924100041549
 21
17.76300499999999
 31
0.0
  0
POLYLINE
  8
1
  6
CONTINUOUS
 62
     2
 66
     1
 10
0.0
 20
0.0
 30
0.0
  0
VERTEX
  8
1
  6
CONTINUOUS
 62
     2
 10
-75.50924100983711
 20
16.63586432288772
 30
0.0
  0
VERTEX
  8
1
  6
CONTINUOUS
 62
     2
 10
-75.50924100983711
 20
18.26300499999999
 30
0.0
  0
SEQEND
  8
1
  6
CONTINUOUS
 62
     2
  0
POLYLINE
  8
1
  6
CONTINUOUS
 62
     2
 66
     1
 10
0.0
 20
0.0
 30
0.0
  0
VERTEX
  8
1
  6
CONTINUOUS
 62
     2
 10
-67.70924100041549
 20
17.65386799996709
 30
0.0
  0
VERTEX
  8
1
  6
CONTINUOUS
 62
     2
 10
-67.70924100041549
 20
18.26300499999999
 30
0.0
  0
SEQEND
  8
1
  6
CONTINUOUS
 62
     2
  0
TEXT
  8
1
  6
CONTINUOUS
 62
     7
 10
-72.48424100512631
 20
17.96300499999999
 30
0.0
 40
1.0
  1
7
 41
0.5
  7
EXCESS_STANDARD
  0
TEXT
  8
1
  6
CONTINUOUS
 62
     7
 10
-71.98424100512631
 20
17.96300499999999
 30
0.0
 40
1.0
  1
.
 41
0.5
  7
EXCESS_STANDARD
  0
TEXT
  8
1
  6
CONTINUOUS
 62
     7
 10
-71.73424100512631
 20
17.96300499999999
 30
0.0
 40
1.0
  1
8
 41
0.5
  7
EXCESS_STANDARD
  0
TEXT
  8
1
  6
CONTINUOUS
 62
     7
 10
-71.23424100512631
 20
17.96300499999999
 30
0.0
 40
1.0
  1
0
 41
0.5
  7
EXCESS_STANDARD
  0
POLYLINE
  8
1
  6
CONTINUOUS
 62
     2
 66
     1
 10
0.0
 20
0.0
 30
0.0
  0
VERTEX
  8
1
  6
CONTINUOUS
 62
     2
 10
-76.81743499999999
 20
14.21114200014739
 30
0.0
  0
VERTEX
  8
1
  6
CONTINUOUS
 62
     2
 10
-76.717435
 20
14.41114200014739
 30
0.0
  0
VERTEX
  8
1
  6
CONTINUOUS
 62
     2
 10
-76.91743499999998
 20
14.41114200014739
 30
0.0
  0
VERTEX
  8
1
  6
CONTINUOUS
 62
     2
 10
-76.81743499999999
 20
14.21114200014739
 30
0.0
  0
SEQEND
  8
1
  6
CONTINUOUS
 62
     2
  0
LINE
  8
1
  6
CONTINUOUS
 62
     2
 10
-76.81743499999999
 20
14.41114200014739
 30
0.0
 11
-76.81743499999999
 21
15.41114200014739
 31
0.0
  0
POLYLINE
  8
1
  6
CONTINUOUS
 62
     2
 66
     1
 10
0.0
 20
0.0
 30
0.0
  0
VERTEX
  8
1
  6
CONTINUOUS
 62
     2
 10
-76.81743499999999
 20
12.96114200014739
 30
0.0
  0
VERTEX
  8
1
  6
CONTINUOUS
 62
     2
 10
-76.91743499999998
 20
12.76114200014739
 30
0.0
  0
VERTEX
  8
1
  6
CONTINUOUS
 62
     2
 10
-76.717435
 20
12.76114200014739
 30
0.0
  0
VERTEX
  8
1
  6
CONTINUOUS
 62
     2
 10
-76.81743499999999
 20
12.96114200014739
 30
0.0
  0
SEQEND
  8
1
  6
CONTINUOUS
 62
     2
  0
LINE
  8
1
  6
CONTINUOUS
 62
     2
 10
-76.81743499999999
 20
12.76114200014739
 30
0.0
 11
-76.81743499999999
 21
11.76114200014739
 31
0.0
  0
LINE
  8
1
  6
CONTINUOUS
 62
     2
 10
-76.81743499999999
 20
14.21114200014739
 30
0.0
 11
-76.81743499999999
 21
12.96114200014739
 31
0.0
  0
POLYLINE
  8
1
  6
CONTINUOUS
 62
     2
 66
     1
 10
0.0
 20
0.0
 30
0.0
  0
VERTEX
  8
1
  6
CONTINUOUS
 62
     2
 10
-75.15924100652498
 20
14.21114200014739
 30
0.0
  0
VERTEX
  8
1
  6
CONTINUOUS
 62
     2
 10
-77.31743499999999
 20
14.21114200014739
 30
0.0
  0
SEQEND
  8
1
  6
CONTINUOUS
 62
     2
  0
POLYLINE
  8
1
  6
CONTINUOUS
 62
     2
 66
     1
 10
0.0
 20
0.0
 30
0.0
  0
VERTEX
  8
1
  6
CONTINUOUS
 62
     2
 10
-75.15924100580024
 20
12.96114200014739
 30
0.0
  0
VERTEX
  8
1
  6
CONTINUOUS
 62
     2
 10
-77.31743499999999
 20
12.96114200014739
 30
0.0
  0
SEQEND
  8
1
  6
CONTINUOUS
 62
     2
  0
TEXT
  8
1
  6
CONTINUOUS
 62
     7
 10
-77.01743499999999
 20
12.71114200014739
 30
0.0
 40
1.0
  1
1
 50
90.0
 41
0.5
  7
EXCESS_STANDARD
  0
TEXT
  8
1
  6
CONTINUOUS
 62
     7
 10
-77.01743499999999
 20
13.21114200014739
 30
0.0
 40
1.0
  1
.
 50
90.0
 41
0.5
  7
EXCESS_STANDARD
  0
TEXT
  8
1
  6
CONTINUOUS
 62
     7
 10
-77.01743499999999
 20
13.46114200014739
 30
0.0
 40
1.0
  1
2
 50
90.0
 41
0.5
  7
EXCESS_STANDARD
  0
TEXT
  8
1
  6
CONTINUOUS
 62
     7
 10
-77.01743499999999
 20
13.96114200014739
 30
0.0
 40
1.0
  1
5
 50
90.0
 41
0.5
  7
EXCESS_STANDARD
  0
POLYLINE
  8
1
  6
CONTINUOUS
 62
     2
 66
     1
 10
0.0
 20
0.0
 30
0.0
  0
VERTEX
  8
1
  6
CONTINUOUS
 62
     2
 10
-98.78956099999999
 20
15.46114200030756
 30
0.0
  0
VERTEX
  8
1
  6
CONTINUOUS
 62
     2
 10
-98.689561
 20
15.66114200030756
 30
0.0
  0
VERTEX
  8
1
  6
CONTINUOUS
 62
     2
 10
-98.88956099999999
 20
15.66114200030756
 30
0.0
  0
VERTEX
  8
1
  6
CONTINUOUS
 62
     2
 10
-98.78956099999999
 20
15.46114200030756
 30
0.0
  0
SEQEND
  8
1
  6
CONTINUOUS
 62
     2
  0
LINE
  8
1
  6
CONTINUOUS
 62
     2
 10
-98.78956099999999
 20
15.66114200030756
 30
0.0
 11
-98.78956099999999
 21
16.66114200030756
 31
0.0
  0
POLYLINE
  8
1
  6
CONTINUOUS
 62
     2
 66
     1
 10
0.0
 20
0.0
 30
0.0
  0
VERTEX
  8
1
  6
CONTINUOUS
 62
     2
 10
-98.78956099999999
 20
14.46114200030758
 30
0.0
  0
VERTEX
  8
1
  6
CONTINUOUS
 62
     2
 10
-98.88956099999999
 20
14.26114200030758
 30
0.0
  0
VERTEX
  8
1
  6
CONTINUOUS
 62
     2
 10
-98.689561
 20
14.26114200030758
 30
0.0
  0
VERTEX
  8
1
  6
CONTINUOUS
 62
     2
 10
-98.78956099999999
 20
14.46114200030758
 30
0.0
  0
SEQEND
  8
1
  6
CONTINUOUS
 62
     2
  0
LINE
  8
1
  6
CONTINUOUS
 62
     2
 10
-98.78956099999999
 20
14.26114200030758
 30
0.0
 11
-98.78956099999999
 21
13.26114200030758
 31
0.0
  0
LINE
  8
1
  6
CONTINUOUS
 62
     2
 10
-98.78956099999999
 20
15.46114200030756
 30
0.0
 11
-98.78956099999999
 21
14.46114200030758
 31
0.0
  0
POLYLINE
  8
1
  6
CONTINUOUS
 62
     2
 66
     1
 10
0.0
 20
0.0
 30
0.0
  0
VERTEX
  8
1
  6
CONTINUOUS
 62
     2
 10
-96.88704699535164
 20
15.46114200030756
 30
0.0
  0
VERTEX
  8
1
  6
CONTINUOUS
 62
     2
 10
-99.28956099999999
 20
15.46114200030756
 30
0.0
  0
SEQEND
  8
1
  6
CONTINUOUS
 62
     2
  0
POLYLINE
  8
1
  6
CONTINUOUS
 62
     2
 66
     1
 10
0.0
 20
0.0
 30
0.0
  0
VERTEX
  8
1
  6
CONTINUOUS
 62
     2
 10
-96.88704699572922
 20
14.46114200030758
 30
0.0
  0
VERTEX
  8
1
  6
CONTINUOUS
 62
     2
 10
-99.28956099999999
 20
14.46114200030758
 30
0.0
  0
SEQEND
  8
1
  6
CONTINUOUS
 62
     2
  0
TEXT
  8
1
  6
CONTINUOUS
 62
     7
 10
-98.989561
 20
14.08614200030757
 30
0.0
 40
1.0
  1
1
 50
90.0
 41
0.5
  7
EXCESS_STANDARD
  0
TEXT
  8
1
  6
CONTINUOUS
 62
     7
 10
-98.989561
 20
14.58614200030757
 30
0.0
 40
1.0
  1
.
 50
90.0
 41
0.5
  7
EXCESS_STANDARD
  0
TEXT
  8
1
  6
CONTINUOUS
 62
     7
 10
-98.989561
 20
14.83614200030757
 30
0.0
 40
1.0
  1
0
 50
90.0
 41
0.5
  7
EXCESS_STANDARD
  0
TEXT
  8
1
  6
CONTINUOUS
 62
     7
 10
-98.989561
 20
15.33614200030757
 30
0.0
 40
1.0
  1
0
 50
90.0
 41
0.5
  7
EXCESS_STANDARD
  0
POLYLINE
  8
1
  6
CONTINUOUS
 62
     2
 66
     1
 10
0.0
 20
0.0
 30
0.0
  0
VERTEX
  8
1
  6
CONTINUOUS
 62
     2
 10
-45.88308700037251
 20
19.85535499999999
 30
0.0
  0
VERTEX
  8
1
  6
CONTINUOUS
 62
     2
 10
-46.08308700037252
 20
19.95535499999999
 30
0.0
  0
VERTEX
  8
1
  6
CONTINUOUS
 62
     2
 10
-46.08308700037252
 20
19.75535499999999
 30
0.0
  0
VERTEX
  8
1
  6
CONTINUOUS
 62
     2
 10
-45.88308700037251
 20
19.85535499999999
 30
0.0
  0
SEQEND
  8
1
  6
CONTINUOUS
 62
     2
  0
POLYLINE
  8
1
  6
CONTINUOUS
 62
     2
 66
     1
 10
0.0
 20
0.0
 30
0.0
  0
VERTEX
  8
1
  6
CONTINUOUS
 62
     2
 10
-55.68308700074508
 20
19.85535499999999
 30
0.0
  0
VERTEX
  8
1
  6
CONTINUOUS
 62
     2
 10
-55.48308700074507
 20
19.75535499999999
 30
0.0
  0
VERTEX
  8
1
  6
CONTINUOUS
 62
     2
 10
-55.48308700074507
 20
19.95535499999999
 30
0.0
  0
VERTEX
  8
1
  6
CONTINUOUS
 62
     2
 10
-55.68308700074508
 20
19.85535499999999
 30
0.0
  0
SEQEND
  8
1
  6
CONTINUOUS
 62
     2
  0
LINE
  8
1
  6
CONTINUOUS
 62
     2
 10
-46.08308700037252
 20
19.85535499999999
 30
0.0
 11
-55.48308700074507
 21
19.85535499999999
 31
0.0
  0
POLYLINE
  8
1
  6
CONTINUOUS
 62
     2
 66
     1
 10
0.0
 20
0.0
 30
0.0
  0
VERTEX
  8
1
  6
CONTINUOUS
 62
     2
 10
-45.88308700037251
 20
17.65386799996709
 30
0.0
  0
VERTEX
  8
1
  6
CONTINUOUS
 62
     2
 10
-45.88308700037251
 20
20.35535499999999
 30
0.0
  0
SEQEND
  8
1
  6
CONTINUOUS
 62
     2
  0
POLYLINE
  8
1
  6
CONTINUOUS
 62
     2
 66
     1
 10
0.0
 20
0.0
 30
0.0
  0
VERTEX
  8
1
  6
CONTINUOUS
 62
     2
 10
-55.68308700074508
 20
17.65386799996709
 30
0.0
  0
VERTEX
  8
1
  6
CONTINUOUS
 62
     2
 10
-55.68308700074508
 20
20.35535499999999
 30
0.0
  0
SEQEND
  8
1
  6
CONTINUOUS
 62
     2
  0
TEXT
  8
1
  6
CONTINUOUS
 62
     7
 10
-51.65808700055879
 20
20.05535499999999
 30
0.0
 40
1.0
  1
9
 41
0.5
  7
EXCESS_STANDARD
  0
TEXT
  8
1
  6
CONTINUOUS
 62
     7
 10
-51.15808700055879
 20
20.05535499999999
 30
0.0
 40
1.0
  1
.
 41
0.5
  7
EXCESS_STANDARD
  0
TEXT
  8
1
  6
CONTINUOUS
 62
     7
 10
-50.90808700055879
 20
20.05535499999999
 30
0.0
 40
1.0
  1
8
 41
0.5
  7
EXCESS_STANDARD
  0
TEXT
  8
1
  6
CONTINUOUS
 62
     7
 10
-50.40808700055879
 20
20.05535499999999
 30
0.0
 40
1.0
  1
0
 41
0.5
  7
EXCESS_STANDARD
  0
POLYLINE
  8
1
  6
CONTINUOUS
 62
     2
 66
     1
 10
0.0
 20
0.0
 30
0.0
  0
VERTEX
  8
1
  6
CONTINUOUS
 62
     2
 10
-42.86606600000002
 20
16.96114199211812
 30
0.0
  0
VERTEX
  8
1
  6
CONTINUOUS
 62
     2
 10
-42.76606600000002
 20
17.16114199211811
 30
0.0
  0
VERTEX
  8
1
  6
CONTINUOUS
 62
     2
 10
-42.96606600000002
 20
17.16114199211811
 30
0.0
  0
VERTEX
  8
1
  6
CONTINUOUS
 62
     2
 10
-42.86606600000002
 20
16.96114199211812
 30
0.0
  0
SEQEND
  8
1
  6
CONTINUOUS
 62
     2
  0
LINE
  8
1
  6
CONTINUOUS
 62
     2
 10
-42.86606600000002
 20
17.16114199211811
 30
0.0
 11
-42.86606600000002
 21
19.82523899999998
 31
0.0
  0
POLYLINE
  8
1
  6
CONTINUOUS
 62
     2
 66
     1
 10
0.0
 20
0.0
 30
0.0
  0
VERTEX
  8
1
  6
CONTINUOUS
 62
     2
 10
-42.86606600000002
 20
15.46114202378308
 30
0.0
  0
VERTEX
  8
1
  6
CONTINUOUS
 62
     2
 10
-42.96606600000002
 20
15.26114202378308
 30
0.0
  0
VERTEX
  8
1
  6
CONTINUOUS
 62
     2
 10
-42.76606600000002
 20
15.26114202378308
 30
0.0
  0
VERTEX
  8
1
  6
CONTINUOUS
 62
     2
 10
-42.86606600000002
 20
15.46114202378308
 30
0.0
  0
SEQEND
  8
1
  6
CONTINUOUS
 62
     2
  0
LINE
  8
1
  6
CONTINUOUS
 62
     2
 10
-42.86606600000002
 20
15.26114202378308
 30
0.0
 11
-42.86606600000002
 21
14.26114202378308
 31
0.0
  0
LINE
  8
1
  6
CONTINUOUS
 62
     2
 10
-42.86606600000002
 20
16.96114199211812
 30
0.0
 11
-42.86606600000002
 21
15.46114202378308
 31
0.0
  0
POLYLINE
  8
1
  6
CONTINUOUS
 62
     2
 66
     1
 10
0.0
 20
0.0
 30
0.0
  0
VERTEX
  8
1
  6
CONTINUOUS
 62
     2
 10
-46.3830870005588
 20
16.96114199211812
 30
0.0
  0
VERTEX
  8
1
  6
CONTINUOUS
 62
     2
 10
-42.36606600000002
 20
16.96114199211812
 30
0.0
  0
SEQEND
  8
1
  6
CONTINUOUS
 62
     2
  0
POLYLINE
  8
1
  6
CONTINUOUS
 62
     2
 66
     1
 10
0.0
 20
0.0
 30
0.0
  0
VERTEX
  8
1
  6
CONTINUOUS
 62
     2
 10
-46.3830870005588
 20
15.46114202378308
 30
0.0
  0
VERTEX
  8
1
  6
CONTINUOUS
 62
     2
 10
-42.36606600000002
 20
15.46114202378308
 30
0.0
  0
SEQEND
  8
1
  6
CONTINUOUS
 62
     2
  0
TEXT
  8
1
  6
CONTINUOUS
 62
     7
 10
-43.06606600000002
 20
18.07523899999998
 30
0.0
 40
1.0
  1
1
 50
90.0
 41
0.5
  7
EXCESS_STANDARD
  0
TEXT
  8
1
  6
CONTINUOUS
 62
     7
 10
-43.06606600000002
 20
18.57523899999998
 30
0.0
 40
1.0
  1
.
 50
90.0
 41
0.5
  7
EXCESS_STANDARD
  0
TEXT
  8
1
  6
CONTINUOUS
 62
     7
 10
-43.06606600000002
 20
18.82523899999998
 30
0.0
 40
1.0
  1
5
 50
90.0
 41
0.5
  7
EXCESS_STANDARD
  0
TEXT
  8
1
  6
CONTINUOUS
 62
     7
 10
-43.06606600000002
 20
19.32523899999998
 30
0.0
 40
1.0
  1
0
 50
90.0
 41
0.5
  7
EXCESS_STANDARD
  0
POLYLINE
  8
1
  6
CONTINUOUS
 62
     2
 66
     1
 10
0.0
 20
0.0
 30
0.0
  0
VERTEX
  8
1
  6
CONTINUOUS
 62
     2
 10
-50.78308700055879
 20
1.424839999999989
 30
0.0
  0
VERTEX
  8
1
  6
CONTINUOUS
 62
     2
 10
-50.58308700055879
 20
1.324839999999989
 30
0.0
  0
VERTEX
  8
1
  6
CONTINUOUS
 62
     2
 10
-50.58308700055879
 20
1.524839999999989
 30
0.0
  0
VERTEX
  8
1
  6
CONTINUOUS
 62
     2
 10
-50.78308700055879
 20
1.424839999999989
 30
0.0
  0
SEQEND
  8
1
  6
CONTINUOUS
 62
     2
  0
POLYLINE
  8
1
  6
CONTINUOUS
 62
     2
 66
     1
 10
0.0
 20
0.0
 30
0.0
  0
VERTEX
  8
1
  6
CONTINUOUS
 62
     2
 10
-46.6830870005588
 20
1.424839999999989
 30
0.0
  0
VERTEX
  8
1
  6
CONTINUOUS
 62
     2
 10
-46.8830870005588
 20
1.524839999999989
 30
0.0
  0
VERTEX
  8
1
  6
CONTINUOUS
 62
     2
 10
-46.8830870005588
 20
1.324839999999989
 30
0.0
  0
VERTEX
  8
1
  6
CONTINUOUS
 62
     2
 10
-46.6830870005588
 20
1.424839999999989
 30
0.0
  0
SEQEND
  8
1
  6
CONTINUOUS
 62
     2
  0
LINE
  8
1
  6
CONTINUOUS
 62
     2
 10
-50.58308700055879
 20
1.424839999999989
 30
0.0
 11
-46.8830870005588
 21
1.424839999999989
 31
0.0
  0
POLYLINE
  8
1
  6
CONTINUOUS
 62
     2
 66
     1
 10
0.0
 20
0.0
 30
0.0
  0
VERTEX
  8
1
  6
CONTINUOUS
 62
     2
 10
-50.78308700055879
 20
0.7611419995686959
 30
0.0
  0
VERTEX
  8
1
  6
CONTINUOUS
 62
     2
 10
-50.78308700055879
 20
1.924839999999989
 30
0.0
  0
SEQEND
  8
1
  6
CONTINUOUS
 62
     2
  0
POLYLINE
  8
1
  6
CONTINUOUS
 62
     2
 66
     1
 10
0.0
 20
0.0
 30
0.0
  0
VERTEX
  8
1
  6
CONTINUOUS
 62
     2
 10
-46.6830870005588
 20
0.7611419995686959
 30
0.0
  0
VERTEX
  8
1
  6
CONTINUOUS
 62
     2
 10
-46.6830870005588
 20
1.924839999999989
 30
0.0
  0
SEQEND
  8
1
  6
CONTINUOUS
 62
     2
  0
TEXT
  8
1
  6
CONTINUOUS
 62
     7
 10
-49.6080870005588
 20
1.624839999999989
 30
0.0
 40
1.0
  1
4
 41
0.4999999999999999
  7
EXCESS_STANDARD
  0
TEXT
  8
1
  6
CONTINUOUS
 62
     7
 10
-49.1080870005588
 20
1.624839999999989
 30
0.0
 40
1.0
  1
.
 41
0.4999999999999999
  7
EXCESS_STANDARD
  0
TEXT
  8
1
  6
CONTINUOUS
 62
     7
 10
-48.8580870005588
 20
1.624839999999989
 30
0.0
 40
1.0
  1
1
 41
0.4999999999999999
  7
EXCESS_STANDARD
  0
TEXT
  8
1
  6
CONTINUOUS
 62
     7
 10
-48.3580870005588
 20
1.624839999999989
 30
0.0
 40
1.0
  1
0
 41
0.4999999999999999
  7
EXCESS_STANDARD
  0
POLYLINE
  8
1
  6
CONTINUOUS
 62
     2
 66
     1
 10
0.0
 20
0.0
 30
0.0
  0
VERTEX
  8
1
  6
CONTINUOUS
 62
     2
 10
-50.78308700055879
 20
-1.463967000000011
 30
0.0
  0
VERTEX
  8
1
  6
CONTINUOUS
 62
     2
 10
-50.58308700055879
 20
-1.563967000000011
 30
0.0
  0
VERTEX
  8
1
  6
CONTINUOUS
 62
     2
 10
-50.58308700055879
 20
-1.363967000000011
 30
0.0
  0
VERTEX
  8
1
  6
CONTINUOUS
 62
     2
 10
-50.78308700055879
 20
-1.463967000000011
 30
0.0
  0
SEQEND
  8
1
  6
CONTINUOUS
 62
     2
  0
POLYLINE
  8
1
  6
CONTINUOUS
 62
     2
 66
     1
 10
0.0
 20
0.0
 30
0.0
  0
VERTEX
  8
1
  6
CONTINUOUS
 62
     2
 10
-45.8830869988067
 20
-1.463967000000011
 30
0.0
  0
VERTEX
  8
1
  6
CONTINUOUS
 62
     2
 10
-46.08308699880671
 20
-1.363967000000011
 30
0.0
  0
VERTEX
  8
1
  6
CONTINUOUS
 62
     2
 10
-46.08308699880671
 20
-1.563967000000011
 30
0.0
  0
VERTEX
  8
1
  6
CONTINUOUS
 62
     2
 10
-45.8830869988067
 20
-1.463967000000011
 30
0.0
  0
SEQEND
  8
1
  6
CONTINUOUS
 62
     2
  0
LINE
  8
1
  6
CONTINUOUS
 62
     2
 10
-50.58308700055879
 20
-1.463967000000011
 30
0.0
 11
-46.08308699880671
 21
-1.463967000000011
 31
0.0
  0
POLYLINE
  8
1
  6
CONTINUOUS
 62
     2
 66
     1
 10
0.0
 20
0.0
 30
0.0
  0
VERTEX
  8
1
  6
CONTINUOUS
 62
     2
 10
-50.78308700055879
 20
0.1611419995686958
 30
0.0
  0
VERTEX
  8
1
  6
CONTINUOUS
 62
     2
 10
-50.78308700055879
 20
-1.963967000000011
 30
0.0
  0
SEQEND
  8
1
  6
CONTINUOUS
 62
     2
  0
POLYLINE
  8
1
  6
CONTINUOUS
 62
     2
 66
     1
 10
0.0
 20
0.0
 30
0.0
  0
VERTEX
  8
1
  6
CONTINUOUS
 62
     2
 10
-45.8830869988067
 20
-0.3007382168062975
 30
0.0
  0
VERTEX
  8
1
  6
CONTINUOUS
 62
     2
 10
-45.8830869988067
 20
-1.963967000000011
 30
0.0
  0
SEQEND
  8
1
  6
CONTINUOUS
 62
     2
  0
TEXT
  8
1
  6
CONTINUOUS
 62
     7
 10
-49.20808699968275
 20
-1.263967000000011
 30
0.0
 40
1.0
  1
4
 41
0.5
  7
EXCESS_STANDARD
  0
TEXT
  8
1
  6
CONTINUOUS
 62
     7
 10
-48.70808699968275
 20
-1.263967000000011
 30
0.0
 40
1.0
  1
.
 41
0.5
  7
EXCESS_STANDARD
  0
TEXT
  8
1
  6
CONTINUOUS
 62
     7
 10
-48.45808699968275
 20
-1.263967000000011
 30
0.0
 40
1.0
  1
9
 41
0.5
  7
EXCESS_STANDARD
  0
TEXT
  8
1
  6
CONTINUOUS
 62
     7
 10
-47.95808699968275
 20
-1.263967000000011
 30
0.0
 40
1.0
  1
0
 41
0.5
  7
EXCESS_STANDARD
  0
POLYLINE
  8
1
  6
CONTINUOUS
 62
     2
 66
     1
 10
0.0
 20
0.0
 30
0.0
  0
VERTEX
  8
1
  6
CONTINUOUS
 62
     2
 10
-41.28308700104188
 20
-9.439452000000017
 30
0.0
  0
VERTEX
  8
1
  6
CONTINUOUS
 62
     2
 10
-41.48308700104188
 20
-9.339452000000017
 30
0.0
  0
VERTEX
  8
1
  6
CONTINUOUS
 62
     2
 10
-41.48308700104188
 20
-9.539452000000017
 30
0.0
  0
VERTEX
  8
1
  6
CONTINUOUS
 62
     2
 10
-41.28308700104188
 20
-9.439452000000017
 30
0.0
  0
SEQEND
  8
1
  6
CONTINUOUS
 62
     2
  0
POLYLINE
  8
1
  6
CONTINUOUS
 62
     2
 66
     1
 10
0.0
 20
0.0
 30
0.0
  0
VERTEX
  8
1
  6
CONTINUOUS
 62
     2
 10
-60.28308700104188
 20
-9.439452000000015
 30
0.0
  0
VERTEX
  8
1
  6
CONTINUOUS
 62
     2
 10
-60.08308700104187
 20
-9.539452000000015
 30
0.0
  0
VERTEX
  8
1
  6
CONTINUOUS
 62
     2
 10
-60.08308700104187
 20
-9.339452000000016
 30
0.0
  0
VERTEX
  8
1
  6
CONTINUOUS
 62
     2
 10
-60.28308700104188
 20
-9.439452000000015
 30
0.0
  0
SEQEND
  8
1
  6
CONTINUOUS
 62
     2
  0
LINE
  8
1
  6
CONTINUOUS
 62
     2
 10
-41.48308700104188
 20
-9.439452000000017
 30
0.0
 11
-60.08308700104187
 21
-9.439452000000015
 31
0.0
  0
POLYLINE
  8
1
  6
CONTINUOUS
 62
     2
 66
     1
 10
0.0
 20
0.0
 30
0.0
  0
VERTEX
  8
1
  6
CONTINUOUS
 62
     2
 10
-41.28308700104188
 20
-2.679917999971752
 30
0.0
  0
VERTEX
  8
1
  6
CONTINUOUS
 62
     2
 10
-41.28308700104188
 20
-9.939452000000017
 30
0.0
  0
SEQEND
  8
1
  6
CONTINUOUS
 62
     2
  0
POLYLINE
  8
1
  6
CONTINUOUS
 62
     2
 66
     1
 10
0.0
 20
0.0
 30
0.0
  0
VERTEX
  8
1
  6
CONTINUOUS
 62
     2
 10
-60.28308700104188
 20
-2.679917999971752
 30
0.0
  0
VERTEX
  8
1
  6
CONTINUOUS
 62
     2
 10
-60.28308700104188
 20
-9.939452000000015
 30
0.0
  0
SEQEND
  8
1
  6
CONTINUOUS
 62
     2
  0
TEXT
  8
1
  6
CONTINUOUS
 62
     7
 10
-51.90808700104188
 20
-9.239452000000016
 30
0.0
 40
1.0
  1
1
 41
0.5
  7
EXCESS_STANDARD
  0
TEXT
  8
1
  6
CONTINUOUS
 62
     7
 10
-51.40808700104188
 20
-9.239452000000016
 30
0.0
 40
1.0
  1
9
 41
0.5
  7
EXCESS_STANDARD
  0
TEXT
  8
1
  6
CONTINUOUS
 62
     7
 10
-50.90808700104188
 20
-9.239452000000016
 30
0.0
 40
1.0
  1
.
 41
0.5
  7
EXCESS_STANDARD
  0
TEXT
  8
1
  6
CONTINUOUS
 62
     7
 10
-50.65808700104188
 20
-9.239452000000016
 30
0.0
 40
1.0
  1
0
 41
0.5
  7
EXCESS_STANDARD
  0
TEXT
  8
1
  6
CONTINUOUS
 62
     7
 10
-50.15808700104188
 20
-9.239452000000016
 30
0.0
 40
1.0
  1
0
 41
0.5
  7
EXCESS_STANDARD
  0
POLYLINE
  8
1
  6
CONTINUOUS
 62
     2
 66
     1
 10
0.0
 20
0.0
 30
0.0
  0
VERTEX
  8
1
  6
CONTINUOUS
 62
     2
 10
-94.18704700101537
 20
-25.25862599999999
 30
0.0
  0
VERTEX
  8
1
  6
CONTINUOUS
 62
     2
 10
-94.88704700101538
 20
-25.00862599999999
 30
0.0
  0
VERTEX
  8
1
  6
CONTINUOUS
 62
     2
 10
-94.88704700101538
 20
-25.50862599999999
 30
0.0
  0
VERTEX
  8
1
  6
CONTINUOUS
 62
     2
 10
-94.18704700101537
 20
-25.25862599999999
 30
0.0
  0
SEQEND
  8
1
  6
CONTINUOUS
 62
     2
  0
LINE
  8
1
  6
CONTINUOUS
 62
     2
 10
-94.88704700101538
 20
-25.25862599999999
 30
0.0
 11
-95.88704700101538
 21
-25.25862599999999
 31
0.0
  0
POLYLINE
  8
1
  6
CONTINUOUS
 62
     2
 66
     1
 10
0.0
 20
0.0
 30
0.0
  0
VERTEX
  8
1
  6
CONTINUOUS
 62
     2
 10
-91.38704700154184
 20
-25.25862599999999
 30
0.0
  0
VERTEX
  8
1
  6
CONTINUOUS
 62
     2
 10
-90.68704700154184
 20
-25.50862599999999
 30
0.0
  0
VERTEX
  8
1
  6
CONTINUOUS
 62
     2
 10
-90.68704700154184
 20
-25.00862599999999
 30
0.0
  0
VERTEX
  8
1
  6
CONTINUOUS
 62
     2
 10
-91.38704700154184
 20
-25.25862599999999
 30
0.0
  0
SEQEND
  8
1
  6
CONTINUOUS
 62
     2
  0
LINE
  8
1
  6
CONTINUOUS
 62
     2
 10
-90.68704700154184
 20
-25.25862599999999
 30
0.0
 11
-89.68704700154184
 21
-25.25862599999999
 31
0.0
  0
LINE
  8
1
  6
CONTINUOUS
 62
     2
 10
-94.18704700101537
 20
-25.25862599999999
 30
0.0
 11
-91.38704700154184
 21
-25.25862599999999
 31
0.0
  0
POLYLINE
  8
1
  6
CONTINUOUS
 62
     2
 66
     1
 10
0.0
 20
0.0
 30
0.0
  0
VERTEX
  8
1
  6
CONTINUOUS
 62
     2
 10
-94.18704700101537
 20
-24.67991799923279
 30
0.0
  0
VERTEX
  8
1
  6
CONTINUOUS
 62
     2
 10
-94.18704700101537
 20
-25.75862599999999
 30
0.0
  0
SEQEND
  8
1
  6
CONTINUOUS
 62
     2
  0
POLYLINE
  8
1
  6
CONTINUOUS
 62
     2
 66
     1
 10
0.0
 20
0.0
 30
0.0
  0
VERTEX
  8
1
  6
CONTINUOUS
 62
     2
 10
-91.38704700154184
 20
-22.679917998976
 30
0.0
  0
VERTEX
  8
1
  6
CONTINUOUS
 62
     2
 10
-91.38704700154184
 20
-25.75862599999999
 30
0.0
  0
SEQEND
  8
1
  6
CONTINUOUS
 62
     2
  0
TEXT
  8
1
  6
CONTINUOUS
 62
     7
 10
-93.66204700127861
 20
-25.05862599999999
 30
0.0
 40
1.0
  1
2
 41
0.5
  7
EXCESS_STANDARD
  0
TEXT
  8
1
  6
CONTINUOUS
 62
     7
 10
-93.16204700127861
 20
-25.05862599999999
 30
0.0
 40
1.0
  1
.
 41
0.5
  7
EXCESS_STANDARD
  0
TEXT
  8
1
  6
CONTINUOUS
 62
     7
 10
-92.91204700127861
 20
-25.05862599999999
 30
0.0
 40
1.0
  1
8
 41
0.5
  7
EXCESS_STANDARD
  0
TEXT
  8
1
  6
CONTINUOUS
 62
     7
 10
-92.41204700127861
 20
-25.05862599999999
 30
0.0
 40
1.0
  1
0
 41
0.5
  7
EXCESS_STANDARD
  0
POLYLINE
  8
1
  6
CONTINUOUS
 62
     2
 66
     1
 10
0.0
 20
0.0
 30
0.0
  0
VERTEX
  8
1
  6
CONTINUOUS
 62
     2
 10
-94.18704700101537
 20
-27.21055699999999
 30
0.0
  0
VERTEX
  8
1
  6
CONTINUOUS
 62
     2
 10
-93.48704700101537
 20
-27.46055699999999
 30
0.0
  0
VERTEX
  8
1
  6
CONTINUOUS
 62
     2
 10
-93.48704700101537
 20
-26.96055699999999
 30
0.0
  0
VERTEX
  8
1
  6
CONTINUOUS
 62
     2
 10
-94.18704700101537
 20
-27.21055699999999
 30
0.0
  0
SEQEND
  8
1
  6
CONTINUOUS
 62
     2
  0
POLYLINE
  8
1
  6
CONTINUOUS
 62
     2
 66
     1
 10
0.0
 20
0.0
 30
0.0
  0
VERTEX
  8
1
  6
CONTINUOUS
 62
     2
 10
-90.98704700068464
 20
-27.21055699999999
 30
0.0
  0
VERTEX
  8
1
  6
CONTINUOUS
 62
     2
 10
-91.68704700068464
 20
-26.96055699999999
 30
0.0
  0
VERTEX
  8
1
  6
CONTINUOUS
 62
     2
 10
-91.68704700068464
 20
-27.46055699999999
 30
0.0
  0
VERTEX
  8
1
  6
CONTINUOUS
 62
     2
 10
-90.98704700068464
 20
-27.21055699999999
 30
0.0
  0
SEQEND
  8
1
  6
CONTINUOUS
 62
     2
  0
LINE
  8
1
  6
CONTINUOUS
 62
     2
 10
-93.48704700101537
 20
-27.21055699999999
 30
0.0
 11
-91.68704700068464
 21
-27.21055699999999
 31
0.0
  0
POLYLINE
  8
1
  6
CONTINUOUS
 62
     2
 66
     1
 10
0.0
 20
0.0
 30
0.0
  0
VERTEX
  8
1
  6
CONTINUOUS
 62
     2
 10
-94.18704700101537
 20
-24.67991799923279
 30
0.0
  0
VERTEX
  8
1
  6
CONTINUOUS
 62
     2
 10
-94.18704700101537
 20
-27.71055699999999
 30
0.0
  0
SEQEND
  8
1
  6
CONTINUOUS
 62
     2
  0
POLYLINE
  8
1
  6
CONTINUOUS
 62
     2
 66
     1
 10
0.0
 20
0.0
 30
0.0
  0
VERTEX
  8
1
  6
CONTINUOUS
 62
     2
 10
-90.98704700068464
 20
-22.91085810524838
 30
0.0
  0
VERTEX
  8
1
  6
CONTINUOUS
 62
     2
 10
-90.98704700068464
 20
-27.71055699999999
 30
0.0
  0
SEQEND
  8
1
  6
CONTINUOUS
 62
     2
  0
TEXT
  8
1
  6
CONTINUOUS
 62
     7
 10
-93.46204700085
 20
-27.010557
 30
0.0
 40
1.0
  1
3
 41
0.5
  7
EXCESS_STANDARD
  0
TEXT
  8
1
  6
CONTINUOUS
 62
     7
 10
-92.96204700085
 20
-27.010557
 30
0.0
 40
1.0
  1
.
 41
0.5
  7
EXCESS_STANDARD
  0
TEXT
  8
1
  6
CONTINUOUS
 62
     7
 10
-92.71204700085
 20
-27.010557
 30
0.0
 40
1.0
  1
2
 41
0.5
  7
EXCESS_STANDARD
  0
TEXT
  8
1
  6
CONTINUOUS
 62
     7
 10
-92.21204700085
 20
-27.010557
 30
0.0
 40
1.0
  1
0
 41
0.5
  7
EXCESS_STANDARD
  0
POLYLINE
  8
1
  6
CONTINUOUS
 62
     2
 66
     1
 10
0.0
 20
0.0
 30
0.0
  0
VERTEX
  8
1
  6
CONTINUOUS
 62
     2
 10
-71.6092410004155
 20
-24.472083
 30
0.0
  0
VERTEX
  8
1
  6
CONTINUOUS
 62
     2
 10
-70.90924100041549
 20
-24.722083
 30
0.0
  0
VERTEX
  8
1
  6
CONTINUOUS
 62
     2
 10
-70.90924100041549
 20
-24.222083
 30
0.0
  0
VERTEX
  8
1
  6
CONTINUOUS
 62
     2
 10
-71.6092410004155
 20
-24.472083
 30
0.0
  0
SEQEND
  8
1
  6
CONTINUOUS
 62
     2
  0
POLYLINE
  8
1
  6
CONTINUOUS
 62
     2
 66
     1
 10
0.0
 20
0.0
 30
0.0
  0
VERTEX
  8
1
  6
CONTINUOUS
 62
     2
 10
-67.95924100411057
 20
-24.472083
 30
0.0
  0
VERTEX
  8
1
  6
CONTINUOUS
 62
     2
 10
-68.65924100411057
 20
-24.222083
 30
0.0
  0
VERTEX
  8
1
  6
CONTINUOUS
 62
     2
 10
-68.65924100411057
 20
-24.722083
 30
0.0
  0
VERTEX
  8
1
  6
CONTINUOUS
 62
     2
 10
-67.95924100411057
 20
-24.472083
 30
0.0
  0
SEQEND
  8
1
  6
CONTINUOUS
 62
     2
  0
LINE
  8
1
  6
CONTINUOUS
 62
     2
 10
-70.90924100041549
 20
-24.472083
 30
0.0
 11
-68.65924100411057
 21
-24.472083
 31
0.0
  0
POLYLINE
  8
1
  6
CONTINUOUS
 62
     2
 66
     1
 10
0.0
 20
0.0
 30
0.0
  0
VERTEX
  8
1
  6
CONTINUOUS
 62
     2
 10
-71.6092410004155
 20
-22.67991799923279
 30
0.0
  0
VERTEX
  8
1
  6
CONTINUOUS
 62
     2
 10
-71.6092410004155
 20
-24.972083
 30
0.0
  0
SEQEND
  8
1
  6
CONTINUOUS
 62
     2
  0
POLYLINE
  8
1
  6
CONTINUOUS
 62
     2
 66
     1
 10
0.0
 20
0.0
 30
0.0
  0
VERTEX
  8
1
  6
CONTINUOUS
 62
     2
 10
-67.95924100411057
 20
-22.67991800083864
 30
0.0
  0
VERTEX
  8
1
  6
CONTINUOUS
 62
     2
 10
-67.95924100411057
 20
-24.972083
 30
0.0
  0
SEQEND
  8
1
  6
CONTINUOUS
 62
     2
  0
TEXT
  8
1
  6
CONTINUOUS
 62
     7
 10
-70.65924100226303
 20
-24.272083
 30
0.0
 40
1.0
  1
3
 41
0.5
  7
EXCESS_STANDARD
  0
TEXT
  8
1
  6
CONTINUOUS
 62
     7
 10
-70.15924100226303
 20
-24.272083
 30
0.0
 40
1.0
  1
.
 41
0.5
  7
EXCESS_STANDARD
  0
TEXT
  8
1
  6
CONTINUOUS
 62
     7
 10
-69.90924100226303
 20
-24.272083
 30
0.0
 40
1.0
  1
6
 41
0.5
  7
EXCESS_STANDARD
  0
TEXT
  8
1
  6
CONTINUOUS
 62
     7
 10
-69.40924100226303
 20
-24.272083
 30
0.0
 40
1.0
  1
5
 41
0.5
  7
EXCESS_STANDARD
  0
POLYLINE
  8
1
  6
CONTINUOUS
 62
     2
 66
     1
 10
0.0
 20
0.0
 30
0.0
  0
VERTEX
  8
1
  6
CONTINUOUS
 62
     2
 10
-50.78308700055879
 20
-25.89038599999999
 30
0.0
  0
VERTEX
  8
1
  6
CONTINUOUS
 62
     2
 10
-50.08308700055879
 20
-26.14038599999999
 30
0.0
  0
VERTEX
  8
1
  6
CONTINUOUS
 62
     2
 10
-50.08308700055879
 20
-25.64038599999999
 30
0.0
  0
VERTEX
  8
1
  6
CONTINUOUS
 62
     2
 10
-50.78308700055879
 20
-25.89038599999999
 30
0.0
  0
SEQEND
  8
1
  6
CONTINUOUS
 62
     2
  0
POLYLINE
  8
1
  6
CONTINUOUS
 62
     2
 66
     1
 10
0.0
 20
0.0
 30
0.0
  0
VERTEX
  8
1
  6
CONTINUOUS
 62
     2
 10
-46.28308699970066
 20
-25.89038599999999
 30
0.0
  0
VERTEX
  8
1
  6
CONTINUOUS
 62
     2
 10
-46.98308699970066
 20
-25.64038599999999
 30
0.0
  0
VERTEX
  8
1
  6
CONTINUOUS
 62
     2
 10
-46.98308699970066
 20
-26.14038599999999
 30
0.0
  0
VERTEX
  8
1
  6
CONTINUOUS
 62
     2
 10
-46.28308699970066
 20
-25.89038599999999
 30
0.0
  0
SEQEND
  8
1
  6
CONTINUOUS
 62
     2
  0
LINE
  8
1
  6
CONTINUOUS
 62
     2
 10
-50.08308700055879
 20
-25.89038599999999
 30
0.0
 11
-46.98308699970066
 21
-25.89038599999999
 31
0.0
  0
POLYLINE
  8
1
  6
CONTINUOUS
 62
     2
 66
     1
 10
0.0
 20
0.0
 30
0.0
  0
VERTEX
  8
1
  6
CONTINUOUS
 62
     2
 10
-50.78308700055879
 20
-24.67991799923279
 30
0.0
  0
VERTEX
  8
1
  6
CONTINUOUS
 62
     2
 10
-50.78308700055879
 20
-26.39038599999999
 30
0.0
  0
SEQEND
  8
1
  6
CONTINUOUS
 62
     2
  0
POLYLINE
  8
1
  6
CONTINUOUS
 62
     2
 66
     1
 10
0.0
 20
0.0
 30
0.0
  0
VERTEX
  8
1
  6
CONTINUOUS
 62
     2
 10
-46.28308699970066
 20
-22.679917998976
 30
0.0
  0
VERTEX
  8
1
  6
CONTINUOUS
 62
     2
 10
-46.28308699970066
 20
-26.39038599999999
 30
0.0
  0
SEQEND
  8
1
  6
CONTINUOUS
 62
     2
  0
TEXT
  8
1
  6
CONTINUOUS
 62
     7
 10
-49.40808700012973
 20
-25.69038599999999
 30
0.0
 40
1.0
  1
4
 41
0.5
  7
EXCESS_STANDARD
  0
TEXT
  8
1
  6
CONTINUOUS
 62
     7
 10
-48.90808700012973
 20
-25.69038599999999
 30
0.0
 40
1.0
  1
.
 41
0.5
  7
EXCESS_STANDARD
  0
TEXT
  8
1
  6
CONTINUOUS
 62
     7
 10
-48.65808700012973
 20
-25.69038599999999
 30
0.0
 40
1.0
  1
5
 41
0.5
  7
EXCESS_STANDARD
  0
TEXT
  8
1
  6
CONTINUOUS
 62
     7
 10
-48.15808700012973
 20
-25.69038599999999
 30
0.0
 40
1.0
  1
0
 41
0.5
  7
EXCESS_STANDARD
  0
POLYLINE
  8
1
  6
CONTINUOUS
 62
     2
 66
     1
 10
0.0
 20
0.0
 30
0.0
  0
VERTEX
  8
1
  6
CONTINUOUS
 62
     2
 10
-99.18704700101537
 20
-9.183909999999997
 30
0.0
  0
VERTEX
  8
1
  6
CONTINUOUS
 62
     2
 10
-98.48704700101537
 20
-9.433909999999997
 30
0.0
  0
VERTEX
  8
1
  6
CONTINUOUS
 62
     2
 10
-98.48704700101537
 20
-8.933909999999997
 30
0.0
  0
VERTEX
  8
1
  6
CONTINUOUS
 62
     2
 10
-99.18704700101537
 20
-9.183909999999997
 30
0.0
  0
SEQEND
  8
1
  6
CONTINUOUS
 62
     2
  0
POLYLINE
  8
1
  6
CONTINUOUS
 62
     2
 66
     1
 10
0.0
 20
0.0
 30
0.0
  0
VERTEX
  8
1
  6
CONTINUOUS
 62
     2
 10
-89.18704700101537
 20
-9.183909999999997
 30
0.0
  0
VERTEX
  8
1
  6
CONTINUOUS
 62
     2
 10
-89.88704700101538
 20
-8.933909999999997
 30
0.0
  0
VERTEX
  8
1
  6
CONTINUOUS
 62
     2
 10
-89.88704700101538
 20
-9.433909999999997
 30
0.0
  0
VERTEX
  8
1
  6
CONTINUOUS
 62
     2
 10
-89.18704700101537
 20
-9.183909999999997
 30
0.0
  0
SEQEND
  8
1
  6
CONTINUOUS
 62
     2
  0
LINE
  8
1
  6
CONTINUOUS
 62
     2
 10
-98.48704700101537
 20
-9.183909999999997
 30
0.0
 11
-89.88704700101538
 21
-9.183909999999997
 31
0.0
  0
TEXT
  8
1
  6
CONTINUOUS
 62
     7
 10
-95.31204700101537
 20
-8.983909999999998
 30
0.0
 40
1.0
  1
1
 41
0.5
  7
EXCESS_STANDARD
  0
TEXT
  8
1
  6
CONTINUOUS
 62
     7
 10
-94.81204700101537
 20
-8.983909999999998
 30
0.0
 40
1.0
  1
0
 41
0.5
  7
EXCESS_STANDARD
  0
TEXT
  8
1
  6
CONTINUOUS
 62
     7
 10
-94.31204700101537
 20
-8.983909999999998
 30
0.0
 40
1.0
  1
.
 41
0.5
  7
EXCESS_STANDARD
  0
TEXT
  8
1
  6
CONTINUOUS
 62
     7
 10
-94.06204700101537
 20
-8.983909999999998
 30
0.0
 40
1.0
  1
0
 41
0.5
  7
EXCESS_STANDARD
  0
TEXT
  8
1
  6
CONTINUOUS
 62
     7
 10
-93.56204700101537
 20
-8.983909999999998
 30
0.0
 40
1.0
  1
0
 41
0.5
  7
EXCESS_STANDARD
  0
POLYLINE
  8
1
  6
CONTINUOUS
 62
     2
 66
     1
 10
0.0
 20
0.0
 30
0.0
  0
VERTEX
  8
1
  6
CONTINUOUS
 62
     2
 10
-76.6092410004155
 20
-9.183909999999997
 30
0.0
  0
VERTEX
  8
1
  6
CONTINUOUS
 62
     2
 10
-75.90924100041549
 20
-9.433909999999997
 30
0.0
  0
VERTEX
  8
1
  6
CONTINUOUS
 62
     2
 10
-75.90924100041549
 20
-8.933909999999997
 30
0.0
  0
VERTEX
  8
1
  6
CONTINUOUS
 62
     2
 10
-76.6092410004155
 20
-9.183909999999997
 30
0.0
  0
SEQEND
  8
1
  6
CONTINUOUS
 62
     2
  0
POLYLINE
  8
1
  6
CONTINUOUS
 62
     2
 66
     1
 10
0.0
 20
0.0
 30
0.0
  0
VERTEX
  8
1
  6
CONTINUOUS
 62
     2
 10
-66.6092410004155
 20
-9.183909999999997
 30
0.0
  0
VERTEX
  8
1
  6
CONTINUOUS
 62
     2
 10
-67.3092410004155
 20
-8.933909999999997
 30
0.0
  0
VERTEX
  8
1
  6
CONTINUOUS
 62
     2
 10
-67.3092410004155
 20
-9.433909999999997
 30
0.0
  0
VERTEX
  8
1
  6
CONTINUOUS
 62
     2
 10
-66.6092410004155
 20
-9.183909999999997
 30
0.0
  0
SEQEND
  8
1
  6
CONTINUOUS
 62
     2
  0
LINE
  8
1
  6
CONTINUOUS
 62
     2
 10
-75.90924100041549
 20
-9.183909999999997
 30
0.0
 11
-67.3092410004155
 21
-9.183909999999997
 31
0.0
  0
TEXT
  8
1
  6
CONTINUOUS
 62
     7
 10
-72.7342410004155
 20
-8.983909999999998
 30
0.0
 40
1.0
  1
1
 41
0.5
  7
EXCESS_STANDARD
  0
TEXT
  8
1
  6
CONTINUOUS
 62
     7
 10
-72.2342410004155
 20
-8.983909999999998
 30
0.0
 40
1.0
  1
0
 41
0.5
  7
EXCESS_STANDARD
  0
TEXT
  8
1
  6
CONTINUOUS
 62
     7
 10
-71.7342410004155
 20
-8.983909999999998
 30
0.0
 40
1.0
  1
.
 41
0.5
  7
EXCESS_STANDARD
  0
TEXT
  8
1
  6
CONTINUOUS
 62
     7
 10
-71.4842410004155
 20
-8.983909999999998
 30
0.0
 40
1.0
  1
0
 41
0.5
  7
EXCESS_STANDARD
  0
TEXT
  8
1
  6
CONTINUOUS
 62
     7
 10
-70.9842410004155
 20
-8.983909999999998
 30
0.0
 40
1.0
  1
0
 41
0.5
  7
EXCESS_STANDARD
  0
POLYLINE
  8
1
  6
CONTINUOUS
 62
     2
 66
     1
 10
0.0
 20
0.0
 30
0.0
  0
VERTEX
  8
1
  6
CONTINUOUS
 62
     2
 10
-97.38704700101538
 20
-5.391887000000001
 30
0.0
  0
VERTEX
  8
1
  6
CONTINUOUS
 62
     2
 10
-96.68704700101537
 20
-5.641887000000001
 30
0.0
  0
VERTEX
  8
1
  6
CONTINUOUS
 62
     2
 10
-96.68704700101537
 20
-5.141887000000001
 30
0.0
  0
VERTEX
  8
1
  6
CONTINUOUS
 62
     2
 10
-97.38704700101538
 20
-5.391887000000001
 30
0.0
  0
SEQEND
  8
1
  6
CONTINUOUS
 62
     2
  0
POLYLINE
  8
1
  6
CONTINUOUS
 62
     2
 66
     1
 10
0.0
 20
0.0
 30
0.0
  0
VERTEX
  8
1
  6
CONTINUOUS
 62
     2
 10
-90.98704700101537
 20
-5.391887000000001
 30
0.0
  0
VERTEX
  8
1
  6
CONTINUOUS
 62
     2
 10
-91.68704700101537
 20
-5.141887000000001
 30
0.0
  0
VERTEX
  8
1
  6
CONTINUOUS
 62
     2
 10
-91.68704700101537
 20
-5.641887000000001
 30
0.0
  0
VERTEX
  8
1
  6
CONTINUOUS
 62
     2
 10
-90.98704700101537
 20
-5.391887000000001
 30
0.0
  0
SEQEND
  8
1
  6
CONTINUOUS
 62
     2
  0
LINE
  8
1
  6
CONTINUOUS
 62
     2
 10
-96.68704700101537
 20
-5.391887000000001
 30
0.0
 11
-91.68704700101537
 21
-5.391887000000001
 31
0.0
  0
TEXT
  8
1
  6
CONTINUOUS
 62
     7
 10
-95.06204700101537
 20
-5.191887
 30
0.0
 40
1.0
  1
6
 41
0.5
  7
EXCESS_STANDARD
  0
TEXT
  8
1
  6
CONTINUOUS
 62
     7
 10
-94.56204700101537
 20
-5.191887
 30
0.0
 40
1.0
  1
.
 41
0.5
  7
EXCESS_STANDARD
  0
TEXT
  8
1
  6
CONTINUOUS
 62
     7
 10
-94.31204700101537
 20
-5.191887
 30
0.0
 40
1.0
  1
4
 41
0.5
  7
EXCESS_STANDARD
  0
TEXT
  8
1
  6
CONTINUOUS
 62
     7
 10
-93.81204700101537
 20
-5.191887
 30
0.0
 40
1.0
  1
0
 41
0.5
  7
EXCESS_STANDARD
  0
POLYLINE
  8
1
  6
CONTINUOUS
 62
     2
 66
     1
 10
0.0
 20
0.0
 30
0.0
  0
VERTEX
  8
1
  6
CONTINUOUS
 62
     2
 10
-75.8092410004155
 20
-5.391887000000001
 30
0.0
  0
VERTEX
  8
1
  6
CONTINUOUS
 62
     2
 10
-75.1092410004155
 20
-5.641887000000001
 30
0.0
  0
VERTEX
  8
1
  6
CONTINUOUS
 62
     2
 10
-75.1092410004155
 20
-5.141887000000001
 30
0.0
  0
VERTEX
  8
1
  6
CONTINUOUS
 62
     2
 10
-75.8092410004155
 20
-5.391887000000001
 30
0.0
  0
SEQEND
  8
1
  6
CONTINUOUS
 62
     2
  0
POLYLINE
  8
1
  6
CONTINUOUS
 62
     2
 66
     1
 10
0.0
 20
0.0
 30
0.0
  0
VERTEX
  8
1
  6
CONTINUOUS
 62
     2
 10
-67.40924100041549
 20
-5.391887000000001
 30
0.0
  0
VERTEX
  8
1
  6
CONTINUOUS
 62
     2
 10
-68.1092410004155
 20
-5.141887000000001
 30
0.0
  0
VERTEX
  8
1
  6
CONTINUOUS
 62
     2
 10
-68.1092410004155
 20
-5.641887000000001
 30
0.0
  0
VERTEX
  8
1
  6
CONTINUOUS
 62
     2
 10
-67.40924100041549
 20
-5.391887000000001
 30
0.0
  0
SEQEND
  8
1
  6
CONTINUOUS
 62
     2
  0
LINE
  8
1
  6
CONTINUOUS
 62
     2
 10
-75.1092410004155
 20
-5.391887000000001
 30
0.0
 11
-68.1092410004155
 21
-5.391887000000001
 31
0.0
  0
TEXT
  8
1
  6
CONTINUOUS
 62
     7
 10
-72.4842410004155
 20
-5.191887
 30
0.0
 40
1.0
  1
8
 41
0.5
  7
EXCESS_STANDARD
  0
TEXT
  8
1
  6
CONTINUOUS
 62
     7
 10
-71.9842410004155
 20
-5.191887
 30
0.0
 40
1.0
  1
.
 41
0.5
  7
EXCESS_STANDARD
  0
TEXT
  8
1
  6
CONTINUOUS
 62
     7
 10
-71.7342410004155
 20
-5.191887
 30
0.0
 40
1.0
  1
4
 41
0.5
  7
EXCESS_STANDARD
  0
TEXT
  8
1
  6
CONTINUOUS
 62
     7
 10
-71.2342410004155
 20
-5.191887
 30
0.0
 40
1.0
  1
0
 41
0.5
  7
EXCESS_STANDARD
  0
POLYLINE
  8
1
  6
CONTINUOUS
 62
     2
 66
     1
 10
0.0
 20
0.0
 30
0.0
  0
VERTEX
  8
1
  6
CONTINUOUS
 62
     2
 10
-55.98308700074506
 20
-5.391887000000001
 30
0.0
  0
VERTEX
  8
1
  6
CONTINUOUS
 62
     2
 10
-55.28308700074506
 20
-5.641887000000001
 30
0.0
  0
VERTEX
  8
1
  6
CONTINUOUS
 62
     2
 10
-55.28308700074506
 20
-5.141887000000001
 30
0.0
  0
VERTEX
  8
1
  6
CONTINUOUS
 62
     2
 10
-55.98308700074506
 20
-5.391887000000001
 30
0.0
  0
SEQEND
  8
1
  6
CONTINUOUS
 62
     2
  0
POLYLINE
  8
1
  6
CONTINUOUS
 62
     2
 66
     1
 10
0.0
 20
0.0
 30
0.0
  0
VERTEX
  8
1
  6
CONTINUOUS
 62
     2
 10
-45.5830870014901
 20
-5.391887000000001
 30
0.0
  0
VERTEX
  8
1
  6
CONTINUOUS
 62
     2
 10
-46.2830870014901
 20
-5.141887000000001
 30
0.0
  0
VERTEX
  8
1
  6
CONTINUOUS
 62
     2
 10
-46.2830870014901
 20
-5.641887000000001
 30
0.0
  0
VERTEX
  8
1
  6
CONTINUOUS
 62
     2
 10
-45.5830870014901
 20
-5.391887000000001
 30
0.0
  0
SEQEND
  8
1
  6
CONTINUOUS
 62
     2
  0
LINE
  8
1
  6
CONTINUOUS
 62
     2
 10
-55.28308700074506
 20
-5.391887000000001
 30
0.0
 11
-46.2830870014901
 21
-5.391887000000001
 31
0.0
  0
TEXT
  8
1
  6
CONTINUOUS
 62
     7
 10
-51.90808700111758
 20
-5.191887
 30
0.0
 40
1.0
  1
1
 41
0.5
  7
EXCESS_STANDARD
  0
TEXT
  8
1
  6
CONTINUOUS
 62
     7
 10
-51.40808700111758
 20
-5.191887
 30
0.0
 40
1.0
  1
0
 41
0.5
  7
EXCESS_STANDARD
  0
TEXT
  8
1
  6
CONTINUOUS
 62
     7
 10
-50.90808700111758
 20
-5.191887
 30
0.0
 40
1.0
  1
.
 41
0.5
  7
EXCESS_STANDARD
  0
TEXT
  8
1
  6
CONTINUOUS
 62
     7
 10
-50.65808700111758
 20
-5.191887
 30
0.0
 40
1.0
  1
4
 41
0.5
  7
EXCESS_STANDARD
  0
TEXT
  8
1
  6
CONTINUOUS
 62
     7
 10
-50.15808700111758
 20
-5.191887
 30
0.0
 40
1.0
  1
0
 41
0.5
  7
EXCESS_STANDARD
  0
POLYLINE
  8
1
  6
CONTINUOUS
 62
     2
 66
     1
 10
0.0
 20
0.0
 30
0.0
  0
VERTEX
  8
1
  6
CONTINUOUS
 62
     2
 10
-116.157998
 20
-9.18390999975776
 30
0.0
  0
VERTEX
  8
1
  6
CONTINUOUS
 62
     2
 10
-115.457998
 20
-9.43390999975776
 30
0.0
  0
VERTEX
  8
1
  6
CONTINUOUS
 62
     2
 10
-115.457998
 20
-8.93390999975776
 30
0.0
  0
VERTEX
  8
1
  6
CONTINUOUS
 62
     2
 10
-116.157998
 20
-9.18390999975776
 30
0.0
  0
SEQEND
  8
1
  6
CONTINUOUS
 62
     2
  0
POLYLINE
  8
1
  6
CONTINUOUS
 62
     2
 66
     1
 10
0.0
 20
0.0
 30
0.0
  0
VERTEX
  8
1
  6
CONTINUOUS
 62
     2
 10
-106.157998
 20
-9.18390999975776
 30
0.0
  0
VERTEX
  8
1
  6
CONTINUOUS
 62
     2
 10
-106.857998
 20
-8.93390999975776
 30
0.0
  0
VERTEX
  8
1
  6
CONTINUOUS
 62
     2
 10
-106.857998
 20
-9.43390999975776
 30
0.0
  0
VERTEX
  8
1
  6
CONTINUOUS
 62
     2
 10
-106.157998
 20
-9.18390999975776
 30
0.0
  0
SEQEND
  8
1
  6
CONTINUOUS
 62
     2
  0
LINE
  8
1
  6
CONTINUOUS
 62
     2
 10
-115.457998
 20
-9.18390999975776
 30
0.0
 11
-106.857998
 21
-9.18390999975776
 31
0.0
  0
TEXT
  8
1
  6
CONTINUOUS
 62
     7
 10
-112.282998
 20
-8.98390999975776
 30
0.0
 40
1.0
  1
1
 41
0.5
  7
EXCESS_STANDARD
  0
TEXT
  8
1
  6
CONTINUOUS
 62
     7
 10
-111.782998
 20
-8.98390999975776
 30
0.0
 40
1.0
  1
0
 41
0.5
  7
EXCESS_STANDARD
  0
TEXT
  8
1
  6
CONTINUOUS
 62
     7
 10
-111.282998
 20
-8.98390999975776
 30
0.0
 40
1.0
  1
.
 41
0.5
  7
EXCESS_STANDARD
  0
TEXT
  8
1
  6
CONTINUOUS
 62
     7
 10
-111.032998
 20
-8.98390999975776
 30
0.0
 40
1.0
  1
0
 41
0.5
  7
EXCESS_STANDARD
  0
TEXT
  8
1
  6
CONTINUOUS
 62
     7
 10
-110.532998
 20
-8.98390999975776
 30
0.0
 40
1.0
  1
0
 41
0.5
  7
EXCESS_STANDARD
  0
POLYLINE
  8
1
  6
CONTINUOUS
 62
     2
 66
     1
 10
0.0
 20
0.0
 30
0.0
  0
VERTEX
  8
1
  6
CONTINUOUS
 62
     2
 10
-108.757998
 20
20.107935
 30
0.0
  0
VERTEX
  8
1
  6
CONTINUOUS
 62
     2
 10
-109.257998
 20
20.357935
 30
0.0
  0
VERTEX
  8
1
  6
CONTINUOUS
 62
     2
 10
-109.257998
 20
19.857935
 30
0.0
  0
VERTEX
  8
1
  6
CONTINUOUS
 62
     2
 10
-108.757998
 20
20.107935
 30
0.0
  0
SEQEND
  8
1
  6
CONTINUOUS
 62
     2
  0
POLYLINE
  8
1
  6
CONTINUOUS
 62
     2
 66
     1
 10
0.0
 20
0.0
 30
0.0
  0
VERTEX
  8
1
  6
CONTINUOUS
 62
     2
 10
-113.557998
 20
20.107935
 30
0.0
  0
VERTEX
  8
1
  6
CONTINUOUS
 62
     2
 10
-113.057998
 20
19.857935
 30
0.0
  0
VERTEX
  8
1
  6
CONTINUOUS
 62
     2
 10
-113.057998
 20
20.357935
 30
0.0
  0
VERTEX
  8
1
  6
CONTINUOUS
 62
     2
 10
-113.557998
 20
20.107935
 30
0.0
  0
SEQEND
  8
1
  6
CONTINUOUS
 62
     2
  0
LINE
  8
1
  6
CONTINUOUS
 62
     2
 10
-109.257998
 20
20.107935
 30
0.0
 11
-113.057998
 21
20.107935
 31
0.0
  0
POLYLINE
  8
1
  6
CONTINUOUS
 62
     2
 66
     1
 10
0.0
 20
0.0
 30
0.0
  0
VERTEX
  8
1
  6
CONTINUOUS
 62
     2
 10
-108.757998
 20
17.65386800020933
 30
0.0
  0
VERTEX
  8
1
  6
CONTINUOUS
 62
     2
 10
-108.757998
 20
20.607935
 30
0.0
  0
SEQEND
  8
1
  6
CONTINUOUS
 62
     2
  0
POLYLINE
  8
1
  6
CONTINUOUS
 62
     2
 66
     1
 10
0.0
 20
0.0
 30
0.0
  0
VERTEX
  8
1
  6
CONTINUOUS
 62
     2
 10
-113.557998
 20
17.65386800020933
 30
0.0
  0
VERTEX
  8
1
  6
CONTINUOUS
 62
     2
 10
-113.557998
 20
20.607935
 30
0.0
  0
SEQEND
  8
1
  6
CONTINUOUS
 62
     2
  0
TEXT
  8
1
  6
CONTINUOUS
 62
     7
 10
-112.032998
 20
20.307935
 30
0.0
 40
1.0
  1
4
 41
0.5
  7
EXCESS_STANDARD
  0
TEXT
  8
1
  6
CONTINUOUS
 62
     7
 10
-111.532998
 20
20.307935
 30
0.0
 40
1.0
  1
.
 41
0.5
  7
EXCESS_STANDARD
  0
TEXT
  8
1
  6
CONTINUOUS
 62
     7
 10
-111.282998
 20
20.307935
 30
0.0
 40
1.0
  1
8
 41
0.5
  7
EXCESS_STANDARD
  0
TEXT
  8
1
  6
CONTINUOUS
 62
     7
 10
-110.782998
 20
20.307935
 30
0.0
 40
1.0
  1
0
 41
0.5
  7
EXCESS_STANDARD
  0
POLYLINE
  8
1
  6
CONTINUOUS
 62
     2
 66
     1
 10
0.0
 20
0.0
 30
0.0
  0
VERTEX
  8
1
  6
CONTINUOUS
 62
     2
 10
-111.157998
 20
1.723385
 30
0.0
  0
VERTEX
  8
1
  6
CONTINUOUS
 62
     2
 10
-111.657998
 20
1.973385
 30
0.0
  0
VERTEX
  8
1
  6
CONTINUOUS
 62
     2
 10
-111.657998
 20
1.473385
 30
0.0
  0
VERTEX
  8
1
  6
CONTINUOUS
 62
     2
 10
-111.157998
 20
1.723385
 30
0.0
  0
SEQEND
  8
1
  6
CONTINUOUS
 62
     2
  0
LINE
  8
1
  6
CONTINUOUS
 62
     2
 10
-111.657998
 20
1.723385
 30
0.0
 11
-112.657998
 21
1.723385
 31
0.0
  0
POLYLINE
  8
1
  6
CONTINUOUS
 62
     2
 66
     1
 10
0.0
 20
0.0
 30
0.0
  0
VERTEX
  8
1
  6
CONTINUOUS
 62
     2
 10
-109.137998
 20
1.723385
 30
0.0
  0
VERTEX
  8
1
  6
CONTINUOUS
 62
     2
 10
-108.637998
 20
1.473385
 30
0.0
  0
VERTEX
  8
1
  6
CONTINUOUS
 62
     2
 10
-108.637998
 20
1.973385
 30
0.0
  0
VERTEX
  8
1
  6
CONTINUOUS
 62
     2
 10
-109.137998
 20
1.723385
 30
0.0
  0
SEQEND
  8
1
  6
CONTINUOUS
 62
     2
  0
LINE
  8
1
  6
CONTINUOUS
 62
     2
 10
-108.637998
 20
1.723385
 30
0.0
 11
-107.637998
 21
1.723385
 31
0.0
  0
LINE
  8
1
  6
CONTINUOUS
 62
     2
 10
-111.157998
 20
1.723385
 30
0.0
 11
-109.137998
 21
1.723385
 31
0.0
  0
POLYLINE
  8
1
  6
CONTINUOUS
 62
     2
 66
     1
 10
0.0
 20
0.0
 30
0.0
  0
VERTEX
  8
1
  6
CONTINUOUS
 62
     2
 10
-111.157998
 20
0.761141997948289
 30
0.0
  0
VERTEX
  8
1
  6
CONTINUOUS
 62
     2
 10
-111.157998
 20
2.223385
 30
0.0
  0
SEQEND
  8
1
  6
CONTINUOUS
 62
     2
  0
POLYLINE
  8
1
  6
CONTINUOUS
 62
     2
 66
     1
 10
0.0
 20
0.0
 30
0.0
  0
VERTEX
  8
1
  6
CONTINUOUS
 62
     2
 10
-109.137998
 20
0.761141997948289
 30
0.0
  0
VERTEX
  8
1
  6
CONTINUOUS
 62
     2
 10
-109.137998
 20
2.223385
 30
0.0
  0
SEQEND
  8
1
  6
CONTINUOUS
 62
     2
  0
TEXT
  8
1
  6
CONTINUOUS
 62
     7
 10
-111.022998
 20
1.923385
 30
0.0
 40
0.9999999999999998
  1
2
 41
0.5000000000000001
  7
EXCESS_STANDARD
  0
TEXT
  8
1
  6
CONTINUOUS
 62
     7
 10
-110.522998
 20
1.923385
 30
0.0
 40
0.9999999999999998
  1
.
 41
0.5000000000000001
  7
EXCESS_STANDARD
  0
TEXT
  8
1
  6
CONTINUOUS
 62
     7
 10
-110.272998
 20
1.923385
 30
0.0
 40
0.9999999999999998
  1
0
 41
0.5000000000000001
  7
EXCESS_STANDARD
  0
TEXT
  8
1
  6
CONTINUOUS
 62
     7
 10
-109.772998
 20
1.923385
 30
0.0
 40
0.9999999999999998
  1
2
 41
0.5000000000000001
  7
EXCESS_STANDARD
  0
POLYLINE
  8
1
  6
CONTINUOUS
 62
     2
 66
     1
 10
0.0
 20
0.0
 30
0.0
  0
VERTEX
  8
1
  6
CONTINUOUS
 62
     2
 10
-106.453248
 20
15.6611419904977
 30
0.0
  0
VERTEX
  8
1
  6
CONTINUOUS
 62
     2
 10
-106.203248
 20
16.1611419904977
 30
0.0
  0
VERTEX
  8
1
  6
CONTINUOUS
 62
     2
 10
-106.703248
 20
16.1611419904977
 30
0.0
  0
VERTEX
  8
1
  6
CONTINUOUS
 62
     2
 10
-106.453248
 20
15.6611419904977
 30
0.0
  0
SEQEND
  8
1
  6
CONTINUOUS
 62
     2
  0
LINE
  8
1
  6
CONTINUOUS
 62
     2
 10
-106.453248
 20
16.1611419904977
 30
0.0
 11
-106.453248
 21
17.1611419904977
 31
0.0
  0
POLYLINE
  8
1
  6
CONTINUOUS
 62
     2
 66
     1
 10
0.0
 20
0.0
 30
0.0
  0
VERTEX
  8
1
  6
CONTINUOUS
 62
     2
 10
-106.453248
 20
14.86114199236035
 30
0.0
  0
VERTEX
  8
1
  6
CONTINUOUS
 62
     2
 10
-106.703248
 20
14.36114199236035
 30
0.0
  0
VERTEX
  8
1
  6
CONTINUOUS
 62
     2
 10
-106.203248
 20
14.36114199236035
 30
0.0
  0
VERTEX
  8
1
  6
CONTINUOUS
 62
     2
 10
-106.453248
 20
14.86114199236035
 30
0.0
  0
SEQEND
  8
1
  6
CONTINUOUS
 62
     2
  0
LINE
  8
1
  6
CONTINUOUS
 62
     2
 10
-106.453248
 20
14.36114199236035
 30
0.0
 11
-106.453248
 21
11.52512000000001
 31
0.0
  0
LINE
  8
1
  6
CONTINUOUS
 62
     2
 10
-106.453248
 20
15.6611419904977
 30
0.0
 11
-106.453248
 21
14.86114199236035
 31
0.0
  0
POLYLINE
  8
1
  6
CONTINUOUS
 62
     2
 66
     1
 10
0.0
 20
0.0
 30
0.0
  0
VERTEX
  8
1
  6
CONTINUOUS
 62
     2
 10
-108.8379980087193
 20
15.6611419904977
 30
0.0
  0
VERTEX
  8
1
  6
CONTINUOUS
 62
     2
 10
-105.953248
 20
15.6611419904977
 30
0.0
  0
SEQEND
  8
1
  6
CONTINUOUS
 62
     2
  0
POLYLINE
  8
1
  6
CONTINUOUS
 62
     2
 66
     1
 10
0.0
 20
0.0
 30
0.0
  0
VERTEX
  8
1
  6
CONTINUOUS
 62
     2
 10
-108.837998005742
 20
14.86114199236035
 30
0.0
  0
VERTEX
  8
1
  6
CONTINUOUS
 62
     2
 10
-105.953248
 20
14.86114199236035
 30
0.0
  0
SEQEND
  8
1
  6
CONTINUOUS
 62
     2
  0
TEXT
  8
1
  6
CONTINUOUS
 62
     7
 10
-106.653248
 20
11.52512000000001
 30
0.0
 40
1.0
  1
0
 50
90.0
 41
0.5
  7
EXCESS_STANDARD
  0
TEXT
  8
1
  6
CONTINUOUS
 62
     7
 10
-106.653248
 20
12.02512000000001
 30
0.0
 40
1.0
  1
.
 50
90.0
 41
0.5
  7
EXCESS_STANDARD
  0
TEXT
  8
1
  6
CONTINUOUS
 62
     7
 10
-106.653248
 20
12.27512000000001
 30
0.0
 40
1.0
  1
8
 50
90.0
 41
0.5
  7
EXCESS_STANDARD
  0
TEXT
  8
1
  6
CONTINUOUS
 62
     7
 10
-106.653248
 20
12.77512000000001
 30
0.0
 40
1.0
  1
0
 50
90.0
 41
0.5
  7
EXCESS_STANDARD
  0
POLYLINE
  8
1
  6
CONTINUOUS
 62
     2
 66
     1
 10
0.0
 20
0.0
 30
0.0
  0
VERTEX
  8
1
  6
CONTINUOUS
 62
     2
 10
-111.157998
 20
-1.196472
 30
0.0
  0
VERTEX
  8
1
  6
CONTINUOUS
 62
     2
 10
-111.657998
 20
-0.946472
 30
0.0
  0
VERTEX
  8
1
  6
CONTINUOUS
 62
     2
 10
-111.657998
 20
-1.446472
 30
0.0
  0
VERTEX
  8
1
  6
CONTINUOUS
 62
     2
 10
-111.157998
 20
-1.196472
 30
0.0
  0
SEQEND
  8
1
  6
CONTINUOUS
 62
     2
  0
LINE
  8
1
  6
CONTINUOUS
 62
     2
 10
-111.657998
 20
-1.196472
 30
0.0
 11
-112.657998
 21
-1.196472
 31
0.0
  0
POLYLINE
  8
1
  6
CONTINUOUS
 62
     2
 66
     1
 10
0.0
 20
0.0
 30
0.0
  0
VERTEX
  8
1
  6
CONTINUOUS
 62
     2
 10
-108.757998
 20
-1.196472
 30
0.0
  0
VERTEX
  8
1
  6
CONTINUOUS
 62
     2
 10
-108.257998
 20
-1.446472
 30
0.0
  0
VERTEX
  8
1
  6
CONTINUOUS
 62
     2
 10
-108.257998
 20
-0.946472
 30
0.0
  0
VERTEX
  8
1
  6
CONTINUOUS
 62
     2
 10
-108.757998
 20
-1.196472
 30
0.0
  0
SEQEND
  8
1
  6
CONTINUOUS
 62
     2
  0
LINE
  8
1
  6
CONTINUOUS
 62
     2
 10
-108.257998
 20
-1.196472
 30
0.0
 11
-107.257998
 21
-1.196472
 31
0.0
  0
LINE
  8
1
  6
CONTINUOUS
 62
     2
 10
-111.157998
 20
-1.196472
 30
0.0
 11
-108.757998
 21
-1.196472
 31
0.0
  0
POLYLINE
  8
1
  6
CONTINUOUS
 62
     2
 66
     1
 10
0.0
 20
0.0
 30
0.0
  0
VERTEX
  8
1
  6
CONTINUOUS
 62
     2
 10
-111.157998
 20
0.1611419979482889
 30
0.0
  0
VERTEX
  8
1
  6
CONTINUOUS
 62
     2
 10
-111.157998
 20
-1.696472
 30
0.0
  0
SEQEND
  8
1
  6
CONTINUOUS
 62
     2
  0
POLYLINE
  8
1
  6
CONTINUOUS
 62
     2
 66
     1
 10
0.0
 20
0.0
 30
0.0
  0
VERTEX
  8
1
  6
CONTINUOUS
 62
     2
 10
-108.757998
 20
-0.05825110450387
 30
0.0
  0
VERTEX
  8
1
  6
CONTINUOUS
 62
     2
 10
-108.757998
 20
-1.696472
 30
0.0
  0
SEQEND
  8
1
  6
CONTINUOUS
 62
     2
  0
TEXT
  8
1
  6
CONTINUOUS
 62
     7
 10
-110.832998
 20
-0.996472
 30
0.0
 40
1.0
  1
2
 41
0.5
  7
EXCESS_STANDARD
  0
TEXT
  8
1
  6
CONTINUOUS
 62
     7
 10
-110.332998
 20
-0.996472
 30
0.0
 40
1.0
  1
.
 41
0.5
  7
EXCESS_STANDARD
  0
TEXT
  8
1
  6
CONTINUOUS
 62
     7
 10
-110.082998
 20
-0.996472
 30
0.0
 40
1.0
  1
4
 41
0.5
  7
EXCESS_STANDARD
  0
TEXT
  8
1
  6
CONTINUOUS
 62
     7
 10
-109.582998
 20
-0.996472
 30
0.0
 40
1.0
  1
0
 41
0.5
  7
EXCESS_STANDARD
  0
POLYLINE
  8
1
  6
CONTINUOUS
 62
     2
 66
     1
 10
0.0
 20
0.0
 30
0.0
  0
VERTEX
  8
1
  6
CONTINUOUS
 62
     2
 10
-113.782998
 20
-5.391887000000001
 30
0.0
  0
VERTEX
  8
1
  6
CONTINUOUS
 62
     2
 10
-113.282998
 20
-5.641887000000001
 30
0.0
  0
VERTEX
  8
1
  6
CONTINUOUS
 62
     2
 10
-113.282998
 20
-5.141887000000001
 30
0.0
  0
VERTEX
  8
1
  6
CONTINUOUS
 62
     2
 10
-113.782998
 20
-5.391887000000001
 30
0.0
  0
SEQEND
  8
1
  6
CONTINUOUS
 62
     2
  0
POLYLINE
  8
1
  6
CONTINUOUS
 62
     2
 66
     1
 10
0.0
 20
0.0
 30
0.0
  0
VERTEX
  8
1
  6
CONTINUOUS
 62
     2
 10
-108.532998
 20
-5.391887000000001
 30
0.0
  0
VERTEX
  8
1
  6
CONTINUOUS
 62
     2
 10
-109.032998
 20
-5.141887000000001
 30
0.0
  0
VERTEX
  8
1
  6
CONTINUOUS
 62
     2
 10
-109.032998
 20
-5.641887000000001
 30
0.0
  0
VERTEX
  8
1
  6
CONTINUOUS
 62
     2
 10
-108.532998
 20
-5.391887000000001
 30
0.0
  0
SEQEND
  8
1
  6
CONTINUOUS
 62
     2
  0
LINE
  8
1
  6
CONTINUOUS
 62
     2
 10
-113.282998
 20
-5.391887000000001
 30
0.0
 11
-109.032998
 21
-5.391887000000001
 31
0.0
  0
TEXT
  8
1
  6
CONTINUOUS
 62
     7
 10
-112.032998
 20
-5.191887
 30
0.0
 40
1.0
  1
5
 41
0.5
  7
EXCESS_STANDARD
  0
TEXT
  8
1
  6
CONTINUOUS
 62
     7
 10
-111.532998
 20
-5.191887
 30
0.0
 40
1.0
  1
.
 41
0.5
  7
EXCESS_STANDARD
  0
TEXT
  8
1
  6
CONTINUOUS
 62
     7
 10
-111.282998
 20
-5.191887
 30
0.0
 40
1.0
  1
2
 41
0.5
  7
EXCESS_STANDARD
  0
TEXT
  8
1
  6
CONTINUOUS
 62
     7
 10
-110.782998
 20
-5.191887
 30
0.0
 40
1.0
  1
5
 41
0.5
  7
EXCESS_STANDARD
  0
POLYLINE
  8
1
  6
CONTINUOUS
 62
     2
 66
     1
 10
0.0
 20
0.0
 30
0.0
  0
VERTEX
  8
1
  6
CONTINUOUS
 62
     2
 10
-104.273393
 20
-15.17991800047457
 30
0.0
  0
VERTEX
  8
1
  6
CONTINUOUS
 62
     2
 10
-104.023393
 20
-14.67991800047457
 30
0.0
  0
VERTEX
  8
1
  6
CONTINUOUS
 62
     2
 10
-104.523393
 20
-14.67991800047457
 30
0.0
  0
VERTEX
  8
1
  6
CONTINUOUS
 62
     2
 10
-104.273393
 20
-15.17991800047457
 30
0.0
  0
SEQEND
  8
1
  6
CONTINUOUS
 62
     2
  0
LINE
  8
1
  6
CONTINUOUS
 62
     2
 10
-104.273393
 20
-14.67991800047457
 30
0.0
 11
-104.273393
 21
-12.16568100000001
 31
0.0
  0
POLYLINE
  8
1
  6
CONTINUOUS
 62
     2
 66
     1
 10
0.0
 20
0.0
 30
0.0
  0
VERTEX
  8
1
  6
CONTINUOUS
 62
     2
 10
-104.273393
 20
-15.97991799935699
 30
0.0
  0
VERTEX
  8
1
  6
CONTINUOUS
 62
     2
 10
-104.523393
 20
-16.47991799935699
 30
0.0
  0
VERTEX
  8
1
  6
CONTINUOUS
 62
     2
 10
-104.023393
 20
-16.47991799935699
 30
0.0
  0
VERTEX
  8
1
  6
CONTINUOUS
 62
     2
 10
-104.273393
 20
-15.97991799935699
 30
0.0
  0
SEQEND
  8
1
  6
CONTINUOUS
 62
     2
  0
LINE
  8
1
  6
CONTINUOUS
 62
     2
 10
-104.273393
 20
-16.47991799935699
 30
0.0
 11
-104.273393
 21
-17.47991799935699
 31
0.0
  0
LINE
  8
1
  6
CONTINUOUS
 62
     2
 10
-104.273393
 20
-15.17991800047457
 30
0.0
 11
-104.273393
 21
-15.97991799935699
 31
0.0
  0
POLYLINE
  8
1
  6
CONTINUOUS
 62
     2
 66
     1
 10
0.0
 20
0.0
 30
0.0
  0
VERTEX
  8
1
  6
CONTINUOUS
 62
     2
 10
-108.5579980005632
 20
-15.17991800047457
 30
0.0
  0
VERTEX
  8
1
  6
CONTINUOUS
 62
     2
 10
-103.773393
 20
-15.17991800047457
 30
0.0
  0
SEQEND
  8
1
  6
CONTINUOUS
 62
     2
  0
POLYLINE
  8
1
  6
CONTINUOUS
 62
     2
 66
     1
 10
0.0
 20
0.0
 30
0.0
  0
VERTEX
  8
1
  6
CONTINUOUS
 62
     2
 10
-108.5579980005632
 20
-15.97991799935699
 30
0.0
  0
VERTEX
  8
1
  6
CONTINUOUS
 62
     2
 10
-103.773393
 20
-15.97991799935699
 30
0.0
  0
SEQEND
  8
1
  6
CONTINUOUS
 62
     2
  0
TEXT
  8
1
  6
CONTINUOUS
 62
     7
 10
-104.473393
 20
-13.91568100000001
 30
0.0
 40
1.0
  1
0
 50
90.0
 41
0.5
  7
EXCESS_STANDARD
  0
TEXT
  8
1
  6
CONTINUOUS
 62
     7
 10
-104.473393
 20
-13.41568100000001
 30
0.0
 40
1.0
  1
.
 50
90.0
 41
0.5
  7
EXCESS_STANDARD
  0
TEXT
  8
1
  6
CONTINUOUS
 62
     7
 10
-104.473393
 20
-13.16568100000001
 30
0.0
 40
1.0
  1
8
 50
90.0
 41
0.5
  7
EXCESS_STANDARD
  0
TEXT
  8
1
  6
CONTINUOUS
 62
     7
 10
-104.473393
 20
-12.66568100000001
 30
0.0
 40
1.0
  1
0
 50
90.0
 41
0.5
  7
EXCESS_STANDARD
  0
POLYLINE
  8
1
  6
CONTINUOUS
 62
     2
 66
     1
 10
0.0
 20
0.0
 30
0.0
  0
VERTEX
  8
1
  6
CONTINUOUS
 62
     2
 10
-111.157998
 20
-27.716021
 30
0.0
  0
VERTEX
  8
1
  6
CONTINUOUS
 62
     2
 10
-111.657998
 20
-27.466021
 30
0.0
  0
VERTEX
  8
1
  6
CONTINUOUS
 62
     2
 10
-111.657998
 20
-27.966021
 30
0.0
  0
VERTEX
  8
1
  6
CONTINUOUS
 62
     2
 10
-111.157998
 20
-27.716021
 30
0.0
  0
SEQEND
  8
1
  6
CONTINUOUS
 62
     2
  0
LINE
  8
1
  6
CONTINUOUS
 62
     2
 10
-111.657998
 20
-27.716021
 30
0.0
 11
-112.657998
 21
-27.716021
 31
0.0
  0
POLYLINE
  8
1
  6
CONTINUOUS
 62
     2
 66
     1
 10
0.0
 20
0.0
 30
0.0
  0
VERTEX
  8
1
  6
CONTINUOUS
 62
     2
 10
-108.532997999706
 20
-27.716021
 30
0.0
  0
VERTEX
  8
1
  6
CONTINUOUS
 62
     2
 10
-108.032997999706
 20
-27.966021
 30
0.0
  0
VERTEX
  8
1
  6
CONTINUOUS
 62
     2
 10
-108.032997999706
 20
-27.466021
 30
0.0
  0
VERTEX
  8
1
  6
CONTINUOUS
 62
     2
 10
-108.532997999706
 20
-27.716021
 30
0.0
  0
SEQEND
  8
1
  6
CONTINUOUS
 62
     2
  0
LINE
  8
1
  6
CONTINUOUS
 62
     2
 10
-108.032997999706
 20
-27.716021
 30
0.0
 11
-107.032997999706
 21
-27.716021
 31
0.0
  0
LINE
  8
1
  6
CONTINUOUS
 62
     2
 10
-111.157998
 20
-27.716021
 30
0.0
 11
-108.532997999706
 21
-27.716021
 31
0.0
  0
POLYLINE
  8
1
  6
CONTINUOUS
 62
     2
 66
     1
 10
0.0
 20
0.0
 30
0.0
  0
VERTEX
  8
1
  6
CONTINUOUS
 62
     2
 10
-111.157998
 20
-22.67991799972951
 30
0.0
  0
VERTEX
  8
1
  6
CONTINUOUS
 62
     2
 10
-111.157998
 20
-28.216021
 30
0.0
  0
SEQEND
  8
1
  6
CONTINUOUS
 62
     2
  0
POLYLINE
  8
1
  6
CONTINUOUS
 62
     2
 66
     1
 10
0.0
 20
0.0
 30
0.0
  0
VERTEX
  8
1
  6
CONTINUOUS
 62
     2
 10
-108.532997999706
 20
-22.91085810597362
 30
0.0
  0
VERTEX
  8
1
  6
CONTINUOUS
 62
     2
 10
-108.532997999706
 20
-28.216021
 30
0.0
  0
SEQEND
  8
1
  6
CONTINUOUS
 62
     2
  0
TEXT
  8
1
  6
CONTINUOUS
 62
     7
 10
-110.720497999853
 20
-27.516021
 30
0.0
 40
1.0
  1
2
 41
0.5
  7
EXCESS_STANDARD
  0
TEXT
  8
1
  6
CONTINUOUS
 62
     7
 10
-110.220497999853
 20
-27.516021
 30
0.0
 40
1.0
  1
.
 41
0.5
  7
EXCESS_STANDARD
  0
TEXT
  8
1
  6
CONTINUOUS
 62
     7
 10
-109.970497999853
 20
-27.516021
 30
0.0
 40
1.0
  1
6
 41
0.5
  7
EXCESS_STANDARD
  0
TEXT
  8
1
  6
CONTINUOUS
 62
     7
 10
-109.470497999853
 20
-27.516021
 30
0.0
 40
1.0
  1
3
 41
0.5
  7
EXCESS_STANDARD
  0
POLYLINE
  8
1
  6
CONTINUOUS
 62
     2
 66
     1
 10
0.0
 20
0.0
 30
0.0
  0
VERTEX
  8
1
  6
CONTINUOUS
 62
     2
 10
-135.213724
 20
-9.088925999967092
 30
0.0
  0
VERTEX
  8
1
  6
CONTINUOUS
 62
     2
 10
-134.513724
 20
-9.338925999967092
 30
0.0
  0
VERTEX
  8
1
  6
CONTINUOUS
 62
     2
 10
-134.513724
 20
-8.838925999967092
 30
0.0
  0
VERTEX
  8
1
  6
CONTINUOUS
 62
     2
 10
-135.213724
 20
-9.088925999967092
 30
0.0
  0
SEQEND
  8
1
  6
CONTINUOUS
 62
     2
  0
POLYLINE
  8
1
  6
CONTINUOUS
 62
     2
 66
     1
 10
0.0
 20
0.0
 30
0.0
  0
VERTEX
  8
1
  6
CONTINUOUS
 62
     2
 10
-125.213724
 20
-9.088925999967092
 30
0.0
  0
VERTEX
  8
1
  6
CONTINUOUS
 62
     2
 10
-125.913724
 20
-8.838925999967092
 30
0.0
  0
VERTEX
  8
1
  6
CONTINUOUS
 62
     2
 10
-125.913724
 20
-9.338925999967092
 30
0.0
  0
VERTEX
  8
1
  6
CONTINUOUS
 62
     2
 10
-125.213724
 20
-9.088925999967092
 30
0.0
  0
SEQEND
  8
1
  6
CONTINUOUS
 62
     2
  0
LINE
  8
1
  6
CONTINUOUS
 62
     2
 10
-134.513724
 20
-9.088925999967092
 30
0.0
 11
-125.913724
 21
-9.088925999967092
 31
0.0
  0
TEXT
  8
1
  6
CONTINUOUS
 62
     7
 10
-131.338724
 20
-8.888925999967093
 30
0.0
 40
1.0
  1
1
 41
0.5
  7
EXCESS_STANDARD
  0
TEXT
  8
1
  6
CONTINUOUS
 62
     7
 10
-130.838724
 20
-8.888925999967093
 30
0.0
 40
1.0
  1
0
 41
0.5
  7
EXCESS_STANDARD
  0
TEXT
  8
1
  6
CONTINUOUS
 62
     7
 10
-130.338724
 20
-8.888925999967093
 30
0.0
 40
1.0
  1
.
 41
0.5
  7
EXCESS_STANDARD
  0
TEXT
  8
1
  6
CONTINUOUS
 62
     7
 10
-130.088724
 20
-8.888925999967093
 30
0.0
 40
1.0
  1
0
 41
0.5
  7
EXCESS_STANDARD
  0
TEXT
  8
1
  6
CONTINUOUS
 62
     7
 10
-129.588724
 20
-8.888925999967093
 30
0.0
 40
1.0
  1
0
 41
0.5
  7
EXCESS_STANDARD
  0
POLYLINE
  8
1
  6
CONTINUOUS
 62
     2
 66
     1
 10
0.0
 20
0.0
 30
0.0
  0
VERTEX
  8
1
  6
CONTINUOUS
 62
     2
 10
-130.213724
 20
1.292476
 30
0.0
  0
VERTEX
  8
1
  6
CONTINUOUS
 62
     2
 10
-130.713724
 20
1.542476
 30
0.0
  0
VERTEX
  8
1
  6
CONTINUOUS
 62
     2
 10
-130.713724
 20
1.042476
 30
0.0
  0
VERTEX
  8
1
  6
CONTINUOUS
 62
     2
 10
-130.213724
 20
1.292476
 30
0.0
  0
SEQEND
  8
1
  6
CONTINUOUS
 62
     2
  0
LINE
  8
1
  6
CONTINUOUS
 62
     2
 10
-130.713724
 20
1.292476
 30
0.0
 11
-131.713724
 21
1.292476
 31
0.0
  0
POLYLINE
  8
1
  6
CONTINUOUS
 62
     2
 66
     1
 10
0.0
 20
0.0
 30
0.0
  0
VERTEX
  8
1
  6
CONTINUOUS
 62
     2
 10
-128.6337239972603
 20
1.292476
 30
0.0
  0
VERTEX
  8
1
  6
CONTINUOUS
 62
     2
 10
-128.1337239972603
 20
1.042476
 30
0.0
  0
VERTEX
  8
1
  6
CONTINUOUS
 62
     2
 10
-128.1337239972603
 20
1.542476
 30
0.0
  0
VERTEX
  8
1
  6
CONTINUOUS
 62
     2
 10
-128.6337239972603
 20
1.292476
 30
0.0
  0
SEQEND
  8
1
  6
CONTINUOUS
 62
     2
  0
LINE
  8
1
  6
CONTINUOUS
 62
     2
 10
-128.1337239972603
 20
1.292476
 30
0.0
 11
-127.1337239972603
 21
1.292476
 31
0.0
  0
LINE
  8
1
  6
CONTINUOUS
 62
     2
 10
-130.213724
 20
1.292476
 30
0.0
 11
-128.6337239972603
 21
1.292476
 31
0.0
  0
POLYLINE
  8
1
  6
CONTINUOUS
 62
     2
 66
     1
 10
0.0
 20
0.0
 30
0.0
  0
VERTEX
  8
1
  6
CONTINUOUS
 62
     2
 10
-130.213724
 20
0.8561259977389561
 30
0.0
  0
VERTEX
  8
1
  6
CONTINUOUS
 62
     2
 10
-130.213724
 20
1.792476
 30
0.0
  0
SEQEND
  8
1
  6
CONTINUOUS
 62
     2
  0
POLYLINE
  8
1
  6
CONTINUOUS
 62
     2
 66
     1
 10
0.0
 20
0.0
 30
0.0
  0
VERTEX
  8
1
  6
CONTINUOUS
 62
     2
 10
-128.6337239972603
 20
0.8561259977389561
 30
0.0
  0
VERTEX
  8
1
  6
CONTINUOUS
 62
     2
 10
-128.6337239972603
 20
1.792476
 30
0.0
  0
SEQEND
  8
1
  6
CONTINUOUS
 62
     2
  0
TEXT
  8
1
  6
CONTINUOUS
 62
     7
 10
-130.2987239986301
 20
1.492476
 30
0.0
 40
1.0
  1
1
 41
0.5
  7
EXCESS_STANDARD
  0
TEXT
  8
1
  6
CONTINUOUS
 62
     7
 10
-129.7987239986301
 20
1.492476
 30
0.0
 40
1.0
  1
.
 41
0.5
  7
EXCESS_STANDARD
  0
TEXT
  8
1
  6
CONTINUOUS
 62
     7
 10
-129.5487239986301
 20
1.492476
 30
0.0
 40
1.0
  1
5
 41
0.5
  7
EXCESS_STANDARD
  0
TEXT
  8
1
  6
CONTINUOUS
 62
     7
 10
-129.0487239986301
 20
1.492476
 30
0.0
 40
1.0
  1
8
 41
0.5
  7
EXCESS_STANDARD
  0
POLYLINE
  8
1
  6
CONTINUOUS
 62
     2
 66
     1
 10
0.0
 20
0.0
 30
0.0
  0
VERTEX
  8
1
  6
CONTINUOUS
 62
     2
 10
-128.313724
 20
20.107935
 30
0.0
  0
VERTEX
  8
1
  6
CONTINUOUS
 62
     2
 10
-128.813724
 20
20.357935
 30
0.0
  0
VERTEX
  8
1
  6
CONTINUOUS
 62
     2
 10
-128.813724
 20
19.857935
 30
0.0
  0
VERTEX
  8
1
  6
CONTINUOUS
 62
     2
 10
-128.313724
 20
20.107935
 30
0.0
  0
SEQEND
  8
1
  6
CONTINUOUS
 62
     2
  0
POLYLINE
  8
1
  6
CONTINUOUS
 62
     2
 66
     1
 10
0.0
 20
0.0
 30
0.0
  0
VERTEX
  8
1
  6
CONTINUOUS
 62
     2
 10
-132.113724
 20
20.107935
 30
0.0
  0
VERTEX
  8
1
  6
CONTINUOUS
 62
     2
 10
-131.613724
 20
19.857935
 30
0.0
  0
VERTEX
  8
1
  6
CONTINUOUS
 62
     2
 10
-131.613724
 20
20.357935
 30
0.0
  0
VERTEX
  8
1
  6
CONTINUOUS
 62
     2
 10
-132.113724
 20
20.107935
 30
0.0
  0
SEQEND
  8
1
  6
CONTINUOUS
 62
     2
  0
LINE
  8
1
  6
CONTINUOUS
 62
     2
 10
-128.813724
 20
20.107935
 30
0.0
 11
-131.613724
 21
20.107935
 31
0.0
  0
POLYLINE
  8
1
  6
CONTINUOUS
 62
     2
 66
     1
 10
0.0
 20
0.0
 30
0.0
  0
VERTEX
  8
1
  6
CONTINUOUS
 62
     2
 10
-128.313724
 20
17.74885199889541
 30
0.0
  0
VERTEX
  8
1
  6
CONTINUOUS
 62
     2
 10
-128.313724
 20
20.607935
 30
0.0
  0
SEQEND
  8
1
  6
CONTINUOUS
 62
     2
  0
POLYLINE
  8
1
  6
CONTINUOUS
 62
     2
 66
     1
 10
0.0
 20
0.0
 30
0.0
  0
VERTEX
  8
1
  6
CONTINUOUS
 62
     2
 10
-132.113724
 20
17.74885199889541
 30
0.0
  0
VERTEX
  8
1
  6
CONTINUOUS
 62
     2
 10
-132.113724
 20
20.607935
 30
0.0
  0
SEQEND
  8
1
  6
CONTINUOUS
 62
     2
  0
TEXT
  8
1
  6
CONTINUOUS
 62
     7
 10
-131.088724
 20
20.307935
 30
0.0
 40
1.0
  1
3
 41
0.5
  7
EXCESS_STANDARD
  0
TEXT
  8
1
  6
CONTINUOUS
 62
     7
 10
-130.588724
 20
20.307935
 30
0.0
 40
1.0
  1
.
 41
0.5
  7
EXCESS_STANDARD
  0
TEXT
  8
1
  6
CONTINUOUS
 62
     7
 10
-130.338724
 20
20.307935
 30
0.0
 40
1.0
  1
8
 41
0.5
  7
EXCESS_STANDARD
  0
TEXT
  8
1
  6
CONTINUOUS
 62
     7
 10
-129.838724
 20
20.307935
 30
0.0
 40
1.0
  1
0
 41
0.5
  7
EXCESS_STANDARD
  0
POLYLINE
  8
1
  6
CONTINUOUS
 62
     2
 66
     1
 10
0.0
 20
0.0
 30
0.0
  0
VERTEX
  8
1
  6
CONTINUOUS
 62
     2
 10
-125.369356
 20
14.55612601898611
 30
0.0
  0
VERTEX
  8
1
  6
CONTINUOUS
 62
     2
 10
-125.119356
 20
15.05612601898611
 30
0.0
  0
VERTEX
  8
1
  6
CONTINUOUS
 62
     2
 10
-125.619356
 20
15.05612601898611
 30
0.0
  0
VERTEX
  8
1
  6
CONTINUOUS
 62
     2
 10
-125.369356
 20
14.55612601898611
 30
0.0
  0
SEQEND
  8
1
  6
CONTINUOUS
 62
     2
  0
LINE
  8
1
  6
CONTINUOUS
 62
     2
 10
-125.369356
 20
15.05612601898611
 30
0.0
 11
-125.369356
 21
16.05612601898611
 31
0.0
  0
POLYLINE
  8
1
  6
CONTINUOUS
 62
     2
 66
     1
 10
0.0
 20
0.0
 30
0.0
  0
VERTEX
  8
1
  6
CONTINUOUS
 62
     2
 10
-125.369356
 20
13.85612601786852
 30
0.0
  0
VERTEX
  8
1
  6
CONTINUOUS
 62
     2
 10
-125.619356
 20
13.35612601786852
 30
0.0
  0
VERTEX
  8
1
  6
CONTINUOUS
 62
     2
 10
-125.119356
 20
13.35612601786852
 30
0.0
  0
VERTEX
  8
1
  6
CONTINUOUS
 62
     2
 10
-125.369356
 20
13.85612601786852
 30
0.0
  0
SEQEND
  8
1
  6
CONTINUOUS
 62
     2
  0
LINE
  8
1
  6
CONTINUOUS
 62
     2
 10
-125.369356
 20
13.35612601786852
 30
0.0
 11
-125.369356
 21
11.16827499999999
 31
0.0
  0
LINE
  8
1
  6
CONTINUOUS
 62
     2
 10
-125.369356
 20
14.55612601898611
 30
0.0
 11
-125.369356
 21
13.85612601786852
 31
0.0
  0
POLYLINE
  8
1
  6
CONTINUOUS
 62
     2
 66
     1
 10
0.0
 20
0.0
 30
0.0
  0
VERTEX
  8
1
  6
CONTINUOUS
 62
     2
 10
-128.3337239991735
 20
14.55612601898611
 30
0.0
  0
VERTEX
  8
1
  6
CONTINUOUS
 62
     2
 10
-124.869356
 20
14.55612601898611
 30
0.0
  0
SEQEND
  8
1
  6
CONTINUOUS
 62
     2
  0
POLYLINE
  8
1
  6
CONTINUOUS
 62
     2
 66
     1
 10
0.0
 20
0.0
 30
0.0
  0
VERTEX
  8
1
  6
CONTINUOUS
 62
     2
 10
-128.3337239991735
 20
13.85612601786852
 30
0.0
  0
VERTEX
  8
1
  6
CONTINUOUS
 62
     2
 10
-124.869356
 20
13.85612601786852
 30
0.0
  0
SEQEND
  8
1
  6
CONTINUOUS
 62
     2
  0
TEXT
  8
1
  6
CONTINUOUS
 62
     7
 10
-125.569356
 20
11.16827499999999
 30
0.0
 40
1.0
  1
0
 50
90.0
 41
0.5
  7
EXCESS_STANDARD
  0
TEXT
  8
1
  6
CONTINUOUS
 62
     7
 10
-125.569356
 20
11.66827499999999
 30
0.0
 40
1.0
  1
.
 50
90.0
 41
0.5
  7
EXCESS_STANDARD
  0
TEXT
  8
1
  6
CONTINUOUS
 62
     7
 10
-125.569356
 20
11.91827499999999
 30
0.0
 40
1.0
  1
7
 50
90.0
 41
0.5
  7
EXCESS_STANDARD
  0
TEXT
  8
1
  6
CONTINUOUS
 62
     7
 10
-125.569356
 20
12.41827499999999
 30
0.0
 40
1.0
  1
0
 50
90.0
 41
0.5
  7
EXCESS_STANDARD
  0
POLYLINE
  8
1
  6
CONTINUOUS
 62
     2
 66
     1
 10
0.0
 20
0.0
 30
0.0
  0
VERTEX
  8
1
  6
CONTINUOUS
 62
     2
 10
-130.213724
 20
-1.00871
 30
0.0
  0
VERTEX
  8
1
  6
CONTINUOUS
 62
     2
 10
-130.713724
 20
-0.75871
 30
0.0
  0
VERTEX
  8
1
  6
CONTINUOUS
 62
     2
 10
-130.713724
 20
-1.25871
 30
0.0
  0
VERTEX
  8
1
  6
CONTINUOUS
 62
     2
 10
-130.213724
 20
-1.00871
 30
0.0
  0
SEQEND
  8
1
  6
CONTINUOUS
 62
     2
  0
LINE
  8
1
  6
CONTINUOUS
 62
     2
 10
-130.713724
 20
-1.00871
 30
0.0
 11
-131.713724
 21
-1.00871
 31
0.0
  0
POLYLINE
  8
1
  6
CONTINUOUS
 62
     2
 66
     1
 10
0.0
 20
0.0
 30
0.0
  0
VERTEX
  8
1
  6
CONTINUOUS
 62
     2
 10
-128.313724
 20
-1.00871
 30
0.0
  0
VERTEX
  8
1
  6
CONTINUOUS
 62
     2
 10
-127.813724
 20
-1.25871
 30
0.0
  0
VERTEX
  8
1
  6
CONTINUOUS
 62
     2
 10
-127.813724
 20
-0.75871
 30
0.0
  0
VERTEX
  8
1
  6
CONTINUOUS
 62
     2
 10
-128.313724
 20
-1.00871
 30
0.0
  0
SEQEND
  8
1
  6
CONTINUOUS
 62
     2
  0
LINE
  8
1
  6
CONTINUOUS
 62
     2
 10
-127.813724
 20
-1.00871
 30
0.0
 11
-126.813724
 21
-1.00871
 31
0.0
  0
LINE
  8
1
  6
CONTINUOUS
 62
     2
 10
-130.213724
 20
-1.00871
 30
0.0
 11
-128.313724
 21
-1.00871
 31
0.0
  0
POLYLINE
  8
1
  6
CONTINUOUS
 62
     2
 66
     1
 10
0.0
 20
0.0
 30
0.0
  0
VERTEX
  8
1
  6
CONTINUOUS
 62
     2
 10
-130.213724
 20
0.2561259977389561
 30
0.0
  0
VERTEX
  8
1
  6
CONTINUOUS
 62
     2
 10
-130.213724
 20
-1.50871
 30
0.0
  0
SEQEND
  8
1
  6
CONTINUOUS
 62
     2
  0
POLYLINE
  8
1
  6
CONTINUOUS
 62
     2
 66
     1
 10
0.0
 20
0.0
 30
0.0
  0
VERTEX
  8
1
  6
CONTINUOUS
 62
     2
 10
-128.313724
 20
0.0713739108360456
 30
0.0
  0
VERTEX
  8
1
  6
CONTINUOUS
 62
     2
 10
-128.313724
 20
-1.50871
 30
0.0
  0
SEQEND
  8
1
  6
CONTINUOUS
 62
     2
  0
TEXT
  8
1
  6
CONTINUOUS
 62
     7
 10
-130.138724
 20
-0.80871
 30
0.0
 40
1.0
  1
1
 41
0.5
  7
EXCESS_STANDARD
  0
TEXT
  8
1
  6
CONTINUOUS
 62
     7
 10
-129.638724
 20
-0.80871
 30
0.0
 40
1.0
  1
.
 41
0.5
  7
EXCESS_STANDARD
  0
TEXT
  8
1
  6
CONTINUOUS
 62
     7
 10
-129.388724
 20
-0.80871
 30
0.0
 40
1.0
  1
9
 41
0.5
  7
EXCESS_STANDARD
  0
TEXT
  8
1
  6
CONTINUOUS
 62
     7
 10
-128.888724
 20
-0.80871
 30
0.0
 40
1.0
  1
0
 41
0.5
  7
EXCESS_STANDARD
  0
POLYLINE
  8
1
  6
CONTINUOUS
 62
     2
 66
     1
 10
0.0
 20
0.0
 30
0.0
  0
VERTEX
  8
1
  6
CONTINUOUS
 62
     2
 10
-130.213724
 20
-25.401179
 30
0.0
  0
VERTEX
  8
1
  6
CONTINUOUS
 62
     2
 10
-130.713724
 20
-25.151179
 30
0.0
  0
VERTEX
  8
1
  6
CONTINUOUS
 62
     2
 10
-130.713724
 20
-25.651179
 30
0.0
  0
VERTEX
  8
1
  6
CONTINUOUS
 62
     2
 10
-130.213724
 20
-25.401179
 30
0.0
  0
SEQEND
  8
1
  6
CONTINUOUS
 62
     2
  0
LINE
  8
1
  6
CONTINUOUS
 62
     2
 10
-130.713724
 20
-25.401179
 30
0.0
 11
-131.713724
 21
-25.401179
 31
0.0
  0
POLYLINE
  8
1
  6
CONTINUOUS
 62
     2
 66
     1
 10
0.0
 20
0.0
 30
0.0
  0
VERTEX
  8
1
  6
CONTINUOUS
 62
     2
 10
-128.4637240007102
 20
-25.401179
 30
0.0
  0
VERTEX
  8
1
  6
CONTINUOUS
 62
     2
 10
-127.9637240007102
 20
-25.651179
 30
0.0
  0
VERTEX
  8
1
  6
CONTINUOUS
 62
     2
 10
-127.9637240007102
 20
-25.151179
 30
0.0
  0
VERTEX
  8
1
  6
CONTINUOUS
 62
     2
 10
-128.4637240007102
 20
-25.401179
 30
0.0
  0
SEQEND
  8
1
  6
CONTINUOUS
 62
     2
  0
LINE
  8
1
  6
CONTINUOUS
 62
     2
 10
-127.9637240007102
 20
-25.401179
 30
0.0
 11
-126.9637240007102
 21
-25.401179
 31
0.0
  0
LINE
  8
1
  6
CONTINUOUS
 62
     2
 10
-130.213724
 20
-25.401179
 30
0.0
 11
-128.4637240007102
 21
-25.401179
 31
0.0
  0
POLYLINE
  8
1
  6
CONTINUOUS
 62
     2
 66
     1
 10
0.0
 20
0.0
 30
0.0
  0
VERTEX
  8
1
  6
CONTINUOUS
 62
     2
 10
-130.213724
 20
-22.58493399919988
 30
0.0
  0
VERTEX
  8
1
  6
CONTINUOUS
 62
     2
 10
-130.213724
 20
-25.901179
 30
0.0
  0
SEQEND
  8
1
  6
CONTINUOUS
 62
     2
  0
POLYLINE
  8
1
  6
CONTINUOUS
 62
     2
 66
     1
 10
0.0
 20
0.0
 30
0.0
  0
VERTEX
  8
1
  6
CONTINUOUS
 62
     2
 10
-128.4637240007102
 20
-22.58493400195567
 30
0.0
  0
VERTEX
  8
1
  6
CONTINUOUS
 62
     2
 10
-128.4637240007102
 20
-25.901179
 30
0.0
  0
SEQEND
  8
1
  6
CONTINUOUS
 62
     2
  0
TEXT
  8
1
  6
CONTINUOUS
 62
     7
 10
-130.2137240003551
 20
-25.201179
 30
0.0
 40
1.0
  1
1
 41
0.5
  7
EXCESS_STANDARD
  0
TEXT
  8
1
  6
CONTINUOUS
 62
     7
 10
-129.7137240003551
 20
-25.201179
 30
0.0
 40
1.0
  1
.
 41
0.5
  7
EXCESS_STANDARD
  0
TEXT
  8
1
  6
CONTINUOUS
 62
     7
 10
-129.4637240003551
 20
-25.201179
 30
0.0
 40
1.0
  1
7
 41
0.5
  7
EXCESS_STANDARD
  0
TEXT
  8
1
  6
CONTINUOUS
 62
     7
 10
-128.9637240003551
 20
-25.201179
 30
0.0
 40
1.0
  1
5
 41
0.5
  7
EXCESS_STANDARD
  0
POLYLINE
  8
1
  6
CONTINUOUS
 62
     2
 66
     1
 10
0.0
 20
0.0
 30
0.0
  0
VERTEX
  8
1
  6
CONTINUOUS
 62
     2
 10
-130.213724
 20
-27.719988
 30
0.0
  0
VERTEX
  8
1
  6
CONTINUOUS
 62
     2
 10
-130.713724
 20
-27.469988
 30
0.0
  0
VERTEX
  8
1
  6
CONTINUOUS
 62
     2
 10
-130.713724
 20
-27.969988
 30
0.0
  0
VERTEX
  8
1
  6
CONTINUOUS
 62
     2
 10
-130.213724
 20
-27.719988
 30
0.0
  0
SEQEND
  8
1
  6
CONTINUOUS
 62
     2
  0
LINE
  8
1
  6
CONTINUOUS
 62
     2
 10
-130.713724
 20
-27.719988
 30
0.0
 11
-131.713724
 21
-27.719988
 31
0.0
  0
POLYLINE
  8
1
  6
CONTINUOUS
 62
     2
 66
     1
 10
0.0
 20
0.0
 30
0.0
  0
VERTEX
  8
1
  6
CONTINUOUS
 62
     2
 10
-128.063723999853
 20
-27.719988
 30
0.0
  0
VERTEX
  8
1
  6
CONTINUOUS
 62
     2
 10
-127.563723999853
 20
-27.969988
 30
0.0
  0
VERTEX
  8
1
  6
CONTINUOUS
 62
     2
 10
-127.563723999853
 20
-27.469988
 30
0.0
  0
VERTEX
  8
1
  6
CONTINUOUS
 62
     2
 10
-128.063723999853
 20
-27.719988
 30
0.0
  0
SEQEND
  8
1
  6
CONTINUOUS
 62
     2
  0
LINE
  8
1
  6
CONTINUOUS
 62
     2
 10
-127.563723999853
 20
-27.719988
 30
0.0
 11
-126.563723999853
 21
-27.719988
 31
0.0
  0
LINE
  8
1
  6
CONTINUOUS
 62
     2
 10
-130.213724
 20
-27.719988
 30
0.0
 11
-128.063723999853
 21
-27.719988
 31
0.0
  0
POLYLINE
  8
1
  6
CONTINUOUS
 62
     2
 66
     1
 10
0.0
 20
0.0
 30
0.0
  0
VERTEX
  8
1
  6
CONTINUOUS
 62
     2
 10
-130.213724
 20
-22.58493399918079
 30
0.0
  0
VERTEX
  8
1
  6
CONTINUOUS
 62
     2
 10
-130.213724
 20
-28.219988
 30
0.0
  0
SEQEND
  8
1
  6
CONTINUOUS
 62
     2
  0
POLYLINE
  8
1
  6
CONTINUOUS
 62
     2
 66
     1
 10
0.0
 20
0.0
 30
0.0
  0
VERTEX
  8
1
  6
CONTINUOUS
 62
     2
 10
-128.063723999853
 20
-22.81587410822806
 30
0.0
  0
VERTEX
  8
1
  6
CONTINUOUS
 62
     2
 10
-128.063723999853
 20
-28.219988
 30
0.0
  0
SEQEND
  8
1
  6
CONTINUOUS
 62
     2
  0
TEXT
  8
1
  6
CONTINUOUS
 62
     7
 10
-130.0137239999265
 20
-27.519988
 30
0.0
 40
1.0
  1
2
 41
0.5
  7
EXCESS_STANDARD
  0
TEXT
  8
1
  6
CONTINUOUS
 62
     7
 10
-129.5137239999265
 20
-27.519988
 30
0.0
 40
1.0
  1
.
 41
0.5
  7
EXCESS_STANDARD
  0
TEXT
  8
1
  6
CONTINUOUS
 62
     7
 10
-129.2637239999265
 20
-27.519988
 30
0.0
 40
1.0
  1
1
 41
0.5
  7
EXCESS_STANDARD
  0
TEXT
  8
1
  6
CONTINUOUS
 62
     7
 10
-128.7637239999265
 20
-27.519988
 30
0.0
 40
1.0
  1
5
 41
0.5
  7
EXCESS_STANDARD
  0
POLYLINE
  8
1
  6
CONTINUOUS
 62
     2
 66
     1
 10
0.0
 20
0.0
 30
0.0
  0
VERTEX
  8
1
  6
CONTINUOUS
 62
     2
 10
-132.363724
 20
-5.391887000000001
 30
0.0
  0
VERTEX
  8
1
  6
CONTINUOUS
 62
     2
 10
-131.863724
 20
-5.641887000000001
 30
0.0
  0
VERTEX
  8
1
  6
CONTINUOUS
 62
     2
 10
-131.863724
 20
-5.141887000000001
 30
0.0
  0
VERTEX
  8
1
  6
CONTINUOUS
 62
     2
 10
-132.363724
 20
-5.391887000000001
 30
0.0
  0
SEQEND
  8
1
  6
CONTINUOUS
 62
     2
  0
POLYLINE
  8
1
  6
CONTINUOUS
 62
     2
 66
     1
 10
0.0
 20
0.0
 30
0.0
  0
VERTEX
  8
1
  6
CONTINUOUS
 62
     2
 10
-128.063724
 20
-5.391887000000001
 30
0.0
  0
VERTEX
  8
1
  6
CONTINUOUS
 62
     2
 10
-128.563724
 20
-5.141887000000001
 30
0.0
  0
VERTEX
  8
1
  6
CONTINUOUS
 62
     2
 10
-128.563724
 20
-5.641887000000001
 30
0.0
  0
VERTEX
  8
1
  6
CONTINUOUS
 62
     2
 10
-128.063724
 20
-5.391887000000001
 30
0.0
  0
SEQEND
  8
1
  6
CONTINUOUS
 62
     2
  0
LINE
  8
1
  6
CONTINUOUS
 62
     2
 10
-131.863724
 20
-5.391887000000001
 30
0.0
 11
-128.563724
 21
-5.391887000000001
 31
0.0
  0
TEXT
  8
1
  6
CONTINUOUS
 62
     7
 10
-131.088724
 20
-5.191887
 30
0.0
 40
1.0
  1
4
 41
0.5
  7
EXCESS_STANDARD
  0
TEXT
  8
1
  6
CONTINUOUS
 62
     7
 10
-130.588724
 20
-5.191887
 30
0.0
 40
1.0
  1
.
 41
0.5
  7
EXCESS_STANDARD
  0
TEXT
  8
1
  6
CONTINUOUS
 62
     7
 10
-130.338724
 20
-5.191887
 30
0.0
 40
1.0
  1
3
 41
0.5
  7
EXCESS_STANDARD
  0
TEXT
  8
1
  6
CONTINUOUS
 62
     7
 10
-129.838724
 20
-5.191887
 30
0.0
 40
1.0
  1
0
 41
0.5
  7
EXCESS_STANDARD
  0
POLYLINE
  8
1
  6
CONTINUOUS
 62
     2
 66
     1
 10
0.0
 20
0.0
 30
0.0
  0
VERTEX
  8
1
  6
CONTINUOUS
 62
     2
 10
-111.157998
 20
-24.362585
 30
0.0
  0
VERTEX
  8
1
  6
CONTINUOUS
 62
     2
 10
-111.657998
 20
-24.112585
 30
0.0
  0
VERTEX
  8
1
  6
CONTINUOUS
 62
     2
 10
-111.657998
 20
-24.612585
 30
0.0
  0
VERTEX
  8
1
  6
CONTINUOUS
 62
     2
 10
-111.157998
 20
-24.362585
 30
0.0
  0
SEQEND
  8
1
  6
CONTINUOUS
 62
     2
  0
LINE
  8
1
  6
CONTINUOUS
 62
     2
 10
-111.657998
 20
-24.362585
 30
0.0
 11
-112.657998
 21
-24.362585
 31
0.0
  0
POLYLINE
  8
1
  6
CONTINUOUS
 62
     2
 66
     1
 10
0.0
 20
0.0
 30
0.0
  0
VERTEX
  8
1
  6
CONTINUOUS
 62
     2
 10
-108.9329980005632
 20
-24.362585
 30
0.0
  0
VERTEX
  8
1
  6
CONTINUOUS
 62
     2
 10
-108.4329980005632
 20
-24.612585
 30
0.0
  0
VERTEX
  8
1
  6
CONTINUOUS
 62
     2
 10
-108.4329980005632
 20
-24.112585
 30
0.0
  0
VERTEX
  8
1
  6
CONTINUOUS
 62
     2
 10
-108.9329980005632
 20
-24.362585
 30
0.0
  0
SEQEND
  8
1
  6
CONTINUOUS
 62
     2
  0
LINE
  8
1
  6
CONTINUOUS
 62
     2
 10
-108.4329980005632
 20
-24.362585
 30
0.0
 11
-107.4329980005632
 21
-24.362585
 31
0.0
  0
LINE
  8
1
  6
CONTINUOUS
 62
     2
 10
-111.157998
 20
-24.362585
 30
0.0
 11
-108.9329980005632
 21
-24.362585
 31
0.0
  0
POLYLINE
  8
1
  6
CONTINUOUS
 62
     2
 66
     1
 10
0.0
 20
0.0
 30
0.0
  0
VERTEX
  8
1
  6
CONTINUOUS
 62
     2
 10
-111.157998
 20
-22.67991799971538
 30
0.0
  0
VERTEX
  8
1
  6
CONTINUOUS
 62
     2
 10
-111.157998
 20
-24.862585
 30
0.0
  0
SEQEND
  8
1
  6
CONTINUOUS
 62
     2
  0
POLYLINE
  8
1
  6
CONTINUOUS
 62
     2
 66
     1
 10
0.0
 20
0.0
 30
0.0
  0
VERTEX
  8
1
  6
CONTINUOUS
 62
     2
 10
-108.9329980005632
 20
-22.67991799970123
 30
0.0
  0
VERTEX
  8
1
  6
CONTINUOUS
 62
     2
 10
-108.9329980005632
 20
-24.862585
 30
0.0
  0
SEQEND
  8
1
  6
CONTINUOUS
 62
     2
  0
TEXT
  8
1
  6
CONTINUOUS
 62
     7
 10
-110.9204980002816
 20
-24.162585
 30
0.0
 40
1.0
  1
2
 41
0.5
  7
EXCESS_STANDARD
  0
TEXT
  8
1
  6
CONTINUOUS
 62
     7
 10
-110.4204980002816
 20
-24.162585
 30
0.0
 40
1.0
  1
.
 41
0.5
  7
EXCESS_STANDARD
  0
TEXT
  8
1
  6
CONTINUOUS
 62
     7
 10
-110.1704980002816
 20
-24.162585
 30
0.0
 40
1.0
  1
2
 41
0.5
  7
EXCESS_STANDARD
  0
TEXT
  8
1
  6
CONTINUOUS
 62
     7
 10
-109.6704980002816
 20
-24.162585
 30
0.0
 40
1.0
  1
3
 41
0.5
  7
EXCESS_STANDARD
  0
POLYLINE
  8
1
  6
CONTINUOUS
 62
     2
 66
     1
 10
0.0
 20
0.0
 30
0.0
  0
VERTEX
  8
1
  6
CONTINUOUS
 62
     2
 10
-14.24224200148015
 20
-9.439452000000017
 30
0.0
  0
VERTEX
  8
1
  6
CONTINUOUS
 62
     2
 10
-14.44224200148015
 20
-9.339452000000017
 30
0.0
  0
VERTEX
  8
1
  6
CONTINUOUS
 62
     2
 10
-14.44224200148015
 20
-9.539452000000017
 30
0.0
  0
VERTEX
  8
1
  6
CONTINUOUS
 62
     2
 10
-14.24224200148015
 20
-9.439452000000017
 30
0.0
  0
SEQEND
  8
1
  6
CONTINUOUS
 62
     2
  0
POLYLINE
  8
1
  6
CONTINUOUS
 62
     2
 66
     1
 10
0.0
 20
0.0
 30
0.0
  0
VERTEX
  8
1
  6
CONTINUOUS
 62
     2
 10
-33.24224200148015
 20
-9.439452000000015
 30
0.0
  0
VERTEX
  8
1
  6
CONTINUOUS
 62
     2
 10
-33.04224200148015
 20
-9.539452000000015
 30
0.0
  0
VERTEX
  8
1
  6
CONTINUOUS
 62
     2
 10
-33.04224200148015
 20
-9.339452000000016
 30
0.0
  0
VERTEX
  8
1
  6
CONTINUOUS
 62
     2
 10
-33.24224200148015
 20
-9.439452000000015
 30
0.0
  0
SEQEND
  8
1
  6
CONTINUOUS
 62
     2
  0
LINE
  8
1
  6
CONTINUOUS
 62
     2
 10
-14.44224200148015
 20
-9.439452000000017
 30
0.0
 11
-33.04224200148015
 21
-9.439452000000015
 31
0.0
  0
POLYLINE
  8
1
  6
CONTINUOUS
 62
     2
 66
     1
 10
0.0
 20
0.0
 30
0.0
  0
VERTEX
  8
1
  6
CONTINUOUS
 62
     2
 10
-14.24224200148015
 20
-2.679917999971752
 30
0.0
  0
VERTEX
  8
1
  6
CONTINUOUS
 62
     2
 10
-14.24224200148015
 20
-9.939452000000017
 30
0.0
  0
SEQEND
  8
1
  6
CONTINUOUS
 62
     2
  0
POLYLINE
  8
1
  6
CONTINUOUS
 62
     2
 66
     1
 10
0.0
 20
0.0
 30
0.0
  0
VERTEX
  8
1
  6
CONTINUOUS
 62
     2
 10
-33.24224200148015
 20
-2.679917999971752
 30
0.0
  0
VERTEX
  8
1
  6
CONTINUOUS
 62
     2
 10
-33.24224200148015
 20
-9.939452000000015
 30
0.0
  0
SEQEND
  8
1
  6
CONTINUOUS
 62
     2
  0
TEXT
  8
1
  6
CONTINUOUS
 62
     7
 10
-24.86724200148015
 20
-9.239452000000016
 30
0.0
 40
1.0
  1
1
 41
0.5
  7
EXCESS_STANDARD
  0
TEXT
  8
1
  6
CONTINUOUS
 62
     7
 10
-24.36724200148015
 20
-9.239452000000016
 30
0.0
 40
1.0
  1
9
 41
0.5
  7
EXCESS_STANDARD
  0
TEXT
  8
1
  6
CONTINUOUS
 62
     7
 10
-23.86724200148015
 20
-9.239452000000016
 30
0.0
 40
1.0
  1
.
 41
0.5
  7
EXCESS_STANDARD
  0
TEXT
  8
1
  6
CONTINUOUS
 62
     7
 10
-23.61724200148015
 20
-9.239452000000016
 30
0.0
 40
1.0
  1
0
 41
0.5
  7
EXCESS_STANDARD
  0
TEXT
  8
1
  6
CONTINUOUS
 62
     7
 10
-23.11724200148015
 20
-9.239452000000016
 30
0.0
 40
1.0
  1
0
 41
0.5
  7
EXCESS_STANDARD
  0
POLYLINE
  8
1
  6
CONTINUOUS
 62
     2
 66
     1
 10
0.0
 20
0.0
 30
0.0
  0
VERTEX
  8
1
  6
CONTINUOUS
 62
     2
 10
-23.74224200099707
 20
-25.89038599999999
 30
0.0
  0
VERTEX
  8
1
  6
CONTINUOUS
 62
     2
 10
-23.04224200099707
 20
-26.14038599999999
 30
0.0
  0
VERTEX
  8
1
  6
CONTINUOUS
 62
     2
 10
-23.04224200099707
 20
-25.64038599999999
 30
0.0
  0
VERTEX
  8
1
  6
CONTINUOUS
 62
     2
 10
-23.74224200099707
 20
-25.89038599999999
 30
0.0
  0
SEQEND
  8
1
  6
CONTINUOUS
 62
     2
  0
POLYLINE
  8
1
  6
CONTINUOUS
 62
     2
 66
     1
 10
0.0
 20
0.0
 30
0.0
  0
VERTEX
  8
1
  6
CONTINUOUS
 62
     2
 10
-18.39224199950695
 20
-25.89038599999999
 30
0.0
  0
VERTEX
  8
1
  6
CONTINUOUS
 62
     2
 10
-19.09224199950695
 20
-25.64038599999999
 30
0.0
  0
VERTEX
  8
1
  6
CONTINUOUS
 62
     2
 10
-19.09224199950695
 20
-26.14038599999999
 30
0.0
  0
VERTEX
  8
1
  6
CONTINUOUS
 62
     2
 10
-18.39224199950695
 20
-25.89038599999999
 30
0.0
  0
SEQEND
  8
1
  6
CONTINUOUS
 62
     2
  0
LINE
  8
1
  6
CONTINUOUS
 62
     2
 10
-23.04224200099707
 20
-25.89038599999999
 30
0.0
 11
-19.09224199950695
 21
-25.89038599999999
 31
0.0
  0
POLYLINE
  8
1
  6
CONTINUOUS
 62
     2
 66
     1
 10
0.0
 20
0.0
 30
0.0
  0
VERTEX
  8
1
  6
CONTINUOUS
 62
     2
 10
-23.74224200099707
 20
-24.67991799923279
 30
0.0
  0
VERTEX
  8
1
  6
CONTINUOUS
 62
     2
 10
-23.74224200099707
 20
-26.39038599999999
 30
0.0
  0
SEQEND
  8
1
  6
CONTINUOUS
 62
     2
  0
POLYLINE
  8
1
  6
CONTINUOUS
 62
     2
 66
     1
 10
0.0
 20
0.0
 30
0.0
  0
VERTEX
  8
1
  6
CONTINUOUS
 62
     2
 10
-18.39224199950695
 20
-22.67991800066084
 30
0.0
  0
VERTEX
  8
1
  6
CONTINUOUS
 62
     2
 10
-18.39224199950695
 20
-26.39038599999999
 30
0.0
  0
SEQEND
  8
1
  6
CONTINUOUS
 62
     2
  0
TEXT
  8
1
  6
CONTINUOUS
 62
     7
 10
-21.94224200025201
 20
-25.69038599999999
 30
0.0
 40
1.0
  1
5
 41
0.5
  7
EXCESS_STANDARD
  0
TEXT
  8
1
  6
CONTINUOUS
 62
     7
 10
-21.44224200025201
 20
-25.69038599999999
 30
0.0
 40
1.0
  1
.
 41
0.5
  7
EXCESS_STANDARD
  0
TEXT
  8
1
  6
CONTINUOUS
 62
     7
 10
-21.19224200025201
 20
-25.69038599999999
 30
0.0
 40
1.0
  1
3
 41
0.5
  7
EXCESS_STANDARD
  0
TEXT
  8
1
  6
CONTINUOUS
 62
     7
 10
-20.69224200025201
 20
-25.69038599999999
 30
0.0
 40
1.0
  1
5
 41
0.5
  7
EXCESS_STANDARD
  0
POLYLINE
  8
1
  6
CONTINUOUS
 62
     2
 66
     1
 10
0.0
 20
0.0
 30
0.0
  0
VERTEX
  8
1
  6
CONTINUOUS
 62
     2
 10
-15.081553
 20
12.71114201260721
 30
0.0
  0
VERTEX
  8
1
  6
CONTINUOUS
 62
     2
 10
-14.831553
 20
13.21114201260721
 30
0.0
  0
VERTEX
  8
1
  6
CONTINUOUS
 62
     2
 10
-15.331553
 20
13.21114201260721
 30
0.0
  0
VERTEX
  8
1
  6
CONTINUOUS
 62
     2
 10
-15.081553
 20
12.71114201260721
 30
0.0
  0
SEQEND
  8
1
  6
CONTINUOUS
 62
     2
  0
LINE
  8
1
  6
CONTINUOUS
 62
     2
 10
-15.081553
 20
13.21114201260721
 30
0.0
 11
-15.081553
 21
14.21114201260721
 31
0.0
  0
POLYLINE
  8
1
  6
CONTINUOUS
 62
     2
 66
     1
 10
0.0
 20
0.0
 30
0.0
  0
VERTEX
  8
1
  6
CONTINUOUS
 62
     2
 10
-15.081553
 20
10.96114200981324
 30
0.0
  0
VERTEX
  8
1
  6
CONTINUOUS
 62
     2
 10
-15.331553
 20
10.46114200981324
 30
0.0
  0
VERTEX
  8
1
  6
CONTINUOUS
 62
     2
 10
-14.831553
 20
10.46114200981324
 30
0.0
  0
VERTEX
  8
1
  6
CONTINUOUS
 62
     2
 10
-15.081553
 20
10.96114200981324
 30
0.0
  0
SEQEND
  8
1
  6
CONTINUOUS
 62
     2
  0
LINE
  8
1
  6
CONTINUOUS
 62
     2
 10
-15.081553
 20
10.46114200981324
 30
0.0
 11
-15.081553
 21
8.088515000000001
 31
0.0
  0
LINE
  8
1
  6
CONTINUOUS
 62
     2
 10
-15.081553
 20
12.71114201260721
 30
0.0
 11
-15.081553
 21
10.96114200981324
 31
0.0
  0
POLYLINE
  8
1
  6
CONTINUOUS
 62
     2
 66
     1
 10
0.0
 20
0.0
 30
0.0
  0
VERTEX
  8
1
  6
CONTINUOUS
 62
     2
 10
-18.49224200099707
 20
12.71114201260721
 30
0.0
  0
VERTEX
  8
1
  6
CONTINUOUS
 62
     2
 10
-14.581553
 20
12.71114201260721
 30
0.0
  0
SEQEND
  8
1
  6
CONTINUOUS
 62
     2
  0
POLYLINE
  8
1
  6
CONTINUOUS
 62
     2
 66
     1
 10
0.0
 20
0.0
 30
0.0
  0
VERTEX
  8
1
  6
CONTINUOUS
 62
     2
 10
-18.49224200371532
 20
10.96114200981324
 30
0.0
  0
VERTEX
  8
1
  6
CONTINUOUS
 62
     2
 10
-14.581553
 20
10.96114200981324
 30
0.0
  0
SEQEND
  8
1
  6
CONTINUOUS
 62
     2
  0
TEXT
  8
1
  6
CONTINUOUS
 62
     7
 10
-15.281553
 20
8.088515000000001
 30
0.0
 40
1.0
  1
1
 50
90.0
 41
0.5
  7
EXCESS_STANDARD
  0
TEXT
  8
1
  6
CONTINUOUS
 62
     7
 10
-15.281553
 20
8.588515000000001
 30
0.0
 40
1.0
  1
.
 50
90.0
 41
0.5
  7
EXCESS_STANDARD
  0
TEXT
  8
1
  6
CONTINUOUS
 62
     7
 10
-15.281553
 20
8.838515000000001
 30
0.0
 40
1.0
  1
7
 50
90.0
 41
0.5
  7
EXCESS_STANDARD
  0
TEXT
  8
1
  6
CONTINUOUS
 62
     7
 10
-15.281553
 20
9.338515000000001
 30
0.0
 40
1.0
  1
5
 50
90.0
 41
0.5
  7
EXCESS_STANDARD
  0
POLYLINE
  8
1
  6
CONTINUOUS
 62
     2
 66
     1
 10
0.0
 20
0.0
 30
0.0
  0
VERTEX
  8
1
  6
CONTINUOUS
 62
     2
 10
-23.742242
 20
3.226858
 30
0.0
  0
VERTEX
  8
1
  6
CONTINUOUS
 62
     2
 10
-23.242242
 20
2.976858
 30
0.0
  0
VERTEX
  8
1
  6
CONTINUOUS
 62
     2
 10
-23.242242
 20
3.476858
 30
0.0
  0
VERTEX
  8
1
  6
CONTINUOUS
 62
     2
 10
-23.742242
 20
3.226858
 30
0.0
  0
SEQEND
  8
1
  6
CONTINUOUS
 62
     2
  0
POLYLINE
  8
1
  6
CONTINUOUS
 62
     2
 66
     1
 10
0.0
 20
0.0
 30
0.0
  0
VERTEX
  8
1
  6
CONTINUOUS
 62
     2
 10
-18.79224200210222
 20
3.226858
 30
0.0
  0
VERTEX
  8
1
  6
CONTINUOUS
 62
     2
 10
-19.29224200210222
 20
3.476858
 30
0.0
  0
VERTEX
  8
1
  6
CONTINUOUS
 62
     2
 10
-19.29224200210222
 20
2.976858
 30
0.0
  0
VERTEX
  8
1
  6
CONTINUOUS
 62
     2
 10
-18.79224200210222
 20
3.226858
 30
0.0
  0
SEQEND
  8
1
  6
CONTINUOUS
 62
     2
  0
LINE
  8
1
  6
CONTINUOUS
 62
     2
 10
-23.242242
 20
3.226858
 30
0.0
 11
-19.29224200210222
 21
3.226858
 31
0.0
  0
POLYLINE
  8
1
  6
CONTINUOUS
 62
     2
 66
     1
 10
0.0
 20
0.0
 30
0.0
  0
VERTEX
  8
1
  6
CONTINUOUS
 62
     2
 10
-23.742242
 20
0.7611419995686959
 30
0.0
  0
VERTEX
  8
1
  6
CONTINUOUS
 62
     2
 10
-23.742242
 20
3.726858
 30
0.0
  0
SEQEND
  8
1
  6
CONTINUOUS
 62
     2
  0
POLYLINE
  8
1
  6
CONTINUOUS
 62
     2
 66
     1
 10
0.0
 20
0.0
 30
0.0
  0
VERTEX
  8
1
  6
CONTINUOUS
 62
     2
 10
-18.79224200210222
 20
0.7611419995686959
 30
0.0
  0
VERTEX
  8
1
  6
CONTINUOUS
 62
     2
 10
-18.79224200210222
 20
3.726858
 30
0.0
  0
SEQEND
  8
1
  6
CONTINUOUS
 62
     2
  0
TEXT
  8
1
  6
CONTINUOUS
 62
     7
 10
-22.14224200105111
 20
3.426858
 30
0.0
 40
1.0
  1
4
 41
0.5
  7
EXCESS_STANDARD
  0
TEXT
  8
1
  6
CONTINUOUS
 62
     7
 10
-21.64224200105111
 20
3.426858
 30
0.0
 40
1.0
  1
.
 41
0.5
  7
EXCESS_STANDARD
  0
TEXT
  8
1
  6
CONTINUOUS
 62
     7
 10
-21.39224200105111
 20
3.426858
 30
0.0
 40
1.0
  1
9
 41
0.5
  7
EXCESS_STANDARD
  0
TEXT
  8
1
  6
CONTINUOUS
 62
     7
 10
-20.89224200105111
 20
3.426858
 30
0.0
 40
1.0
  1
5
 41
0.5
  7
EXCESS_STANDARD
  0
POLYLINE
  8
1
  6
CONTINUOUS
 62
     2
 66
     1
 10
0.0
 20
0.0
 30
0.0
  0
VERTEX
  8
1
  6
CONTINUOUS
 62
     2
 10
-29.64224199950695
 20
19.961115
 30
0.0
  0
VERTEX
  8
1
  6
CONTINUOUS
 62
     2
 10
-29.14224199950695
 20
19.711115
 30
0.0
  0
VERTEX
  8
1
  6
CONTINUOUS
 62
     2
 10
-29.14224199950695
 20
20.211115
 30
0.0
  0
VERTEX
  8
1
  6
CONTINUOUS
 62
     2
 10
-29.64224199950695
 20
19.961115
 30
0.0
  0
SEQEND
  8
1
  6
CONTINUOUS
 62
     2
  0
POLYLINE
  8
1
  6
CONTINUOUS
 62
     2
 66
     1
 10
0.0
 20
0.0
 30
0.0
  0
VERTEX
  8
1
  6
CONTINUOUS
 62
     2
 10
-17.84224200062454
 20
19.961115
 30
0.0
  0
VERTEX
  8
1
  6
CONTINUOUS
 62
     2
 10
-18.34224200062454
 20
20.211115
 30
0.0
  0
VERTEX
  8
1
  6
CONTINUOUS
 62
     2
 10
-18.34224200062454
 20
19.711115
 30
0.0
  0
VERTEX
  8
1
  6
CONTINUOUS
 62
     2
 10
-17.84224200062454
 20
19.961115
 30
0.0
  0
SEQEND
  8
1
  6
CONTINUOUS
 62
     2
  0
LINE
  8
1
  6
CONTINUOUS
 62
     2
 10
-29.14224199950695
 20
19.961115
 30
0.0
 11
-18.34224200062454
 21
19.961115
 31
0.0
  0
POLYLINE
  8
1
  6
CONTINUOUS
 62
     2
 66
     1
 10
0.0
 20
0.0
 30
0.0
  0
VERTEX
  8
1
  6
CONTINUOUS
 62
     2
 10
-29.64224199950695
 20
17.65386799996709
 30
0.0
  0
VERTEX
  8
1
  6
CONTINUOUS
 62
     2
 10
-29.64224199950695
 20
20.461115
 30
0.0
  0
SEQEND
  8
1
  6
CONTINUOUS
 62
     2
  0
POLYLINE
  8
1
  6
CONTINUOUS
 62
     2
 66
     1
 10
0.0
 20
0.0
 30
0.0
  0
VERTEX
  8
1
  6
CONTINUOUS
 62
     2
 10
-17.84224200062454
 20
17.65386799996709
 30
0.0
  0
VERTEX
  8
1
  6
CONTINUOUS
 62
     2
 10
-17.84224200062454
 20
20.461115
 30
0.0
  0
SEQEND
  8
1
  6
CONTINUOUS
 62
     2
  0
TEXT
  8
1
  6
CONTINUOUS
 62
     7
 10
-24.86724200006574
 20
20.161115
 30
0.0
 40
1.0
  1
1
 41
0.5
  7
EXCESS_STANDARD
  0
TEXT
  8
1
  6
CONTINUOUS
 62
     7
 10
-24.36724200006574
 20
20.161115
 30
0.0
 40
1.0
  1
1
 41
0.5
  7
EXCESS_STANDARD
  0
TEXT
  8
1
  6
CONTINUOUS
 62
     7
 10
-23.86724200006574
 20
20.161115
 30
0.0
 40
1.0
  1
.
 41
0.5
  7
EXCESS_STANDARD
  0
TEXT
  8
1
  6
CONTINUOUS
 62
     7
 10
-23.61724200006574
 20
20.161115
 30
0.0
 40
1.0
  1
8
 41
0.5
  7
EXCESS_STANDARD
  0
TEXT
  8
1
  6
CONTINUOUS
 62
     7
 10
-23.11724200006574
 20
20.161115
 30
0.0
 40
1.0
  1
0
 41
0.5
  7
EXCESS_STANDARD
  0
POLYLINE
  8
1
  6
CONTINUOUS
 62
     2
 66
     1
 10
0.0
 20
0.0
 30
0.0
  0
VERTEX
  8
1
  6
CONTINUOUS
 62
     2
 10
-23.742242
 20
-1.051638
 30
0.0
  0
VERTEX
  8
1
  6
CONTINUOUS
 62
     2
 10
-23.242242
 20
-1.301638
 30
0.0
  0
VERTEX
  8
1
  6
CONTINUOUS
 62
     2
 10
-23.242242
 20
-0.8016379999999999
 30
0.0
  0
VERTEX
  8
1
  6
CONTINUOUS
 62
     2
 10
-23.742242
 20
-1.051638
 30
0.0
  0
SEQEND
  8
1
  6
CONTINUOUS
 62
     2
  0
POLYLINE
  8
1
  6
CONTINUOUS
 62
     2
 66
     1
 10
0.0
 20
0.0
 30
0.0
  0
VERTEX
  8
1
  6
CONTINUOUS
 62
     2
 10
-17.84224200062454
 20
-1.051638
 30
0.0
  0
VERTEX
  8
1
  6
CONTINUOUS
 62
     2
 10
-18.34224200062454
 20
-0.8016379999999999
 30
0.0
  0
VERTEX
  8
1
  6
CONTINUOUS
 62
     2
 10
-18.34224200062454
 20
-1.301638
 30
0.0
  0
VERTEX
  8
1
  6
CONTINUOUS
 62
     2
 10
-17.84224200062454
 20
-1.051638
 30
0.0
  0
SEQEND
  8
1
  6
CONTINUOUS
 62
     2
  0
LINE
  8
1
  6
CONTINUOUS
 62
     2
 10
-23.242242
 20
-1.051638
 30
0.0
 11
-18.34224200062454
 21
-1.051638
 31
0.0
  0
POLYLINE
  8
1
  6
CONTINUOUS
 62
     2
 66
     1
 10
0.0
 20
0.0
 30
0.0
  0
VERTEX
  8
1
  6
CONTINUOUS
 62
     2
 10
-23.742242
 20
0.1611419995686958
 30
0.0
  0
VERTEX
  8
1
  6
CONTINUOUS
 62
     2
 10
-23.742242
 20
-1.551638
 30
0.0
  0
SEQEND
  8
1
  6
CONTINUOUS
 62
     2
  0
POLYLINE
  8
1
  6
CONTINUOUS
 62
     2
 66
     1
 10
0.0
 20
0.0
 30
0.0
  0
VERTEX
  8
1
  6
CONTINUOUS
 62
     2
 10
-17.84224200062454
 20
-0.3873407553881407
 30
0.0
  0
VERTEX
  8
1
  6
CONTINUOUS
 62
     2
 10
-17.84224200062454
 20
-1.551638
 30
0.0
  0
SEQEND
  8
1
  6
CONTINUOUS
 62
     2
  0
TEXT
  8
1
  6
CONTINUOUS
 62
     7
 10
-21.66724200031227
 20
-0.8516379999999999
 30
0.0
 40
1.0
  1
5
 41
0.5
  7
EXCESS_STANDARD
  0
TEXT
  8
1
  6
CONTINUOUS
 62
     7
 10
-21.16724200031227
 20
-0.8516379999999999
 30
0.0
 40
1.0
  1
.
 41
0.5
  7
EXCESS_STANDARD
  0
TEXT
  8
1
  6
CONTINUOUS
 62
     7
 10
-20.91724200031227
 20
-0.8516379999999999
 30
0.0
 40
1.0
  1
9
 41
0.5
  7
EXCESS_STANDARD
  0
TEXT
  8
1
  6
CONTINUOUS
 62
     7
 10
-20.41724200031227
 20
-0.8516379999999999
 30
0.0
 40
1.0
  1
0
 41
0.5
  7
EXCESS_STANDARD
  0
POLYLINE
  8
1
  6
CONTINUOUS
 62
     2
 66
     1
 10
0.0
 20
0.0
 30
0.0
  0
VERTEX
  8
1
  6
CONTINUOUS
 62
     2
 10
-23.74224200099707
 20
-28.037804
 30
0.0
  0
VERTEX
  8
1
  6
CONTINUOUS
 62
     2
 10
-23.24224200099707
 20
-28.287804
 30
0.0
  0
VERTEX
  8
1
  6
CONTINUOUS
 62
     2
 10
-23.24224200099707
 20
-27.787804
 30
0.0
  0
VERTEX
  8
1
  6
CONTINUOUS
 62
     2
 10
-23.74224200099707
 20
-28.037804
 30
0.0
  0
SEQEND
  8
1
  6
CONTINUOUS
 62
     2
  0
POLYLINE
  8
1
  6
CONTINUOUS
 62
     2
 66
     1
 10
0.0
 20
0.0
 30
0.0
  0
VERTEX
  8
1
  6
CONTINUOUS
 62
     2
 10
-17.542242
 20
-28.037804
 30
0.0
  0
VERTEX
  8
1
  6
CONTINUOUS
 62
     2
 10
-18.042242
 20
-27.787804
 30
0.0
  0
VERTEX
  8
1
  6
CONTINUOUS
 62
     2
 10
-18.042242
 20
-28.287804
 30
0.0
  0
VERTEX
  8
1
  6
CONTINUOUS
 62
     2
 10
-17.542242
 20
-28.037804
 30
0.0
  0
SEQEND
  8
1
  6
CONTINUOUS
 62
     2
  0
LINE
  8
1
  6
CONTINUOUS
 62
     2
 10
-23.24224200099707
 20
-28.037804
 30
0.0
 11
-18.042242
 21
-28.037804
 31
0.0
  0
POLYLINE
  8
1
  6
CONTINUOUS
 62
     2
 66
     1
 10
0.0
 20
0.0
 30
0.0
  0
VERTEX
  8
1
  6
CONTINUOUS
 62
     2
 10
-23.74224200099707
 20
-24.67991799923279
 30
0.0
  0
VERTEX
  8
1
  6
CONTINUOUS
 62
     2
 10
-23.74224200099707
 20
-28.537804
 30
0.0
  0
SEQEND
  8
1
  6
CONTINUOUS
 62
     2
  0
POLYLINE
  8
1
  6
CONTINUOUS
 62
     2
 66
     1
 10
0.0
 20
0.0
 30
0.0
  0
VERTEX
  8
1
  6
CONTINUOUS
 62
     2
 10
-17.542242
 20
-23.17066573090851
 30
0.0
  0
VERTEX
  8
1
  6
CONTINUOUS
 62
     2
 10
-17.542242
 20
-28.537804
 30
0.0
  0
SEQEND
  8
1
  6
CONTINUOUS
 62
     2
  0
TEXT
  8
1
  6
CONTINUOUS
 62
     7
 10
-21.51724200049853
 20
-27.837804
 30
0.0
 40
1.0
  1
6
 41
0.5
  7
EXCESS_STANDARD
  0
TEXT
  8
1
  6
CONTINUOUS
 62
     7
 10
-21.01724200049853
 20
-27.837804
 30
0.0
 40
1.0
  1
.
 41
0.5
  7
EXCESS_STANDARD
  0
TEXT
  8
1
  6
CONTINUOUS
 62
     7
 10
-20.76724200049853
 20
-27.837804
 30
0.0
 40
1.0
  1
2
 41
0.5
  7
EXCESS_STANDARD
  0
TEXT
  8
1
  6
CONTINUOUS
 62
     7
 10
-20.26724200049853
 20
-27.837804
 30
0.0
 40
1.0
  1
0
 41
0.5
  7
EXCESS_STANDARD
  0
POLYLINE
  8
1
  6
CONTINUOUS
 62
     2
 66
     1
 10
0.0
 20
0.0
 30
0.0
  0
VERTEX
  8
1
  6
CONTINUOUS
 62
     2
 10
-29.942242
 20
-5.391887000000001
 30
0.0
  0
VERTEX
  8
1
  6
CONTINUOUS
 62
     2
 10
-29.442242
 20
-5.641887000000001
 30
0.0
  0
VERTEX
  8
1
  6
CONTINUOUS
 62
     2
 10
-29.442242
 20
-5.141887000000001
 30
0.0
  0
VERTEX
  8
1
  6
CONTINUOUS
 62
     2
 10
-29.942242
 20
-5.391887000000001
 30
0.0
  0
SEQEND
  8
1
  6
CONTINUOUS
 62
     2
  0
POLYLINE
  8
1
  6
CONTINUOUS
 62
     2
 66
     1
 10
0.0
 20
0.0
 30
0.0
  0
VERTEX
  8
1
  6
CONTINUOUS
 62
     2
 10
-17.542242
 20
-5.391887000000001
 30
0.0
  0
VERTEX
  8
1
  6
CONTINUOUS
 62
     2
 10
-18.042242
 20
-5.141887000000001
 30
0.0
  0
VERTEX
  8
1
  6
CONTINUOUS
 62
     2
 10
-18.042242
 20
-5.641887000000001
 30
0.0
  0
VERTEX
  8
1
  6
CONTINUOUS
 62
     2
 10
-17.542242
 20
-5.391887000000001
 30
0.0
  0
SEQEND
  8
1
  6
CONTINUOUS
 62
     2
  0
LINE
  8
1
  6
CONTINUOUS
 62
     2
 10
-29.442242
 20
-5.391887000000001
 30
0.0
 11
-18.042242
 21
-5.391887000000001
 31
0.0
  0
TEXT
  8
1
  6
CONTINUOUS
 62
     7
 10
-24.867242
 20
-5.191887
 30
0.0
 40
1.0
  1
1
 41
0.5
  7
EXCESS_STANDARD
  0
TEXT
  8
1
  6
CONTINUOUS
 62
     7
 10
-24.367242
 20
-5.191887
 30
0.0
 40
1.0
  1
2
 41
0.5
  7
EXCESS_STANDARD
  0
TEXT
  8
1
  6
CONTINUOUS
 62
     7
 10
-23.867242
 20
-5.191887
 30
0.0
 40
1.0
  1
.
 41
0.5
  7
EXCESS_STANDARD
  0
TEXT
  8
1
  6
CONTINUOUS
 62
     7
 10
-23.617242
 20
-5.191887
 30
0.0
 40
1.0
  1
4
 41
0.5
  7
EXCESS_STANDARD
  0
TEXT
  8
1
  6
CONTINUOUS
 62
     7
 10
-23.117242
 20
-5.191887
 30
0.0
 40
1.0
  1
0
 41
0.5
  7
EXCESS_STANDARD
  0
POLYLINE
  8
1
  6
CONTINUOUS
 62
     2
 66
     1
 10
0.0
 20
0.0
 30
0.0
  0
VERTEX
  8
1
  6
CONTINUOUS
 62
     2
 10
15.63570899951691
 20
-9.439451999757779
 30
0.0
  0
VERTEX
  8
1
  6
CONTINUOUS
 62
     2
 10
15.43570899951692
 20
-9.33945199975778
 30
0.0
  0
VERTEX
  8
1
  6
CONTINUOUS
 62
     2
 10
15.43570899951692
 20
-9.539451999757778
 30
0.0
  0
VERTEX
  8
1
  6
CONTINUOUS
 62
     2
 10
15.63570899951691
 20
-9.439451999757779
 30
0.0
  0
SEQEND
  8
1
  6
CONTINUOUS
 62
     2
  0
POLYLINE
  8
1
  6
CONTINUOUS
 62
     2
 66
     1
 10
0.0
 20
0.0
 30
0.0
  0
VERTEX
  8
1
  6
CONTINUOUS
 62
     2
 10
-3.364291000483085
 20
-9.439451999757777
 30
0.0
  0
VERTEX
  8
1
  6
CONTINUOUS
 62
     2
 10
-3.164291000483085
 20
-9.539451999757777
 30
0.0
  0
VERTEX
  8
1
  6
CONTINUOUS
 62
     2
 10
-3.164291000483085
 20
-9.339451999757777
 30
0.0
  0
VERTEX
  8
1
  6
CONTINUOUS
 62
     2
 10
-3.364291000483085
 20
-9.439451999757777
 30
0.0
  0
SEQEND
  8
1
  6
CONTINUOUS
 62
     2
  0
LINE
  8
1
  6
CONTINUOUS
 62
     2
 10
15.43570899951692
 20
-9.439451999757779
 30
0.0
 11
-3.164291000483085
 21
-9.439451999757777
 31
0.0
  0
POLYLINE
  8
1
  6
CONTINUOUS
 62
     2
 66
     1
 10
0.0
 20
0.0
 30
0.0
  0
VERTEX
  8
1
  6
CONTINUOUS
 62
     2
 10
15.63570899951691
 20
-2.679917999729514
 30
0.0
  0
VERTEX
  8
1
  6
CONTINUOUS
 62
     2
 10
15.63570899951691
 20
-9.939451999757779
 30
0.0
  0
SEQEND
  8
1
  6
CONTINUOUS
 62
     2
  0
POLYLINE
  8
1
  6
CONTINUOUS
 62
     2
 66
     1
 10
0.0
 20
0.0
 30
0.0
  0
VERTEX
  8
1
  6
CONTINUOUS
 62
     2
 10
-3.364291000483085
 20
-2.679917999729514
 30
0.0
  0
VERTEX
  8
1
  6
CONTINUOUS
 62
     2
 10
-3.364291000483085
 20
-9.939451999757777
 30
0.0
  0
SEQEND
  8
1
  6
CONTINUOUS
 62
     2
  0
TEXT
  8
1
  6
CONTINUOUS
 62
     7
 10
5.010708999516915
 20
-9.239451999757778
 30
0.0
 40
1.0
  1
1
 41
0.5
  7
EXCESS_STANDARD
  0
TEXT
  8
1
  6
CONTINUOUS
 62
     7
 10
5.510708999516915
 20
-9.239451999757778
 30
0.0
 40
1.0
  1
9
 41
0.5
  7
EXCESS_STANDARD
  0
TEXT
  8
1
  6
CONTINUOUS
 62
     7
 10
6.010708999516915
 20
-9.239451999757778
 30
0.0
 40
1.0
  1
.
 41
0.5
  7
EXCESS_STANDARD
  0
TEXT
  8
1
  6
CONTINUOUS
 62
     7
 10
6.260708999516915
 20
-9.239451999757778
 30
0.0
 40
1.0
  1
0
 41
0.5
  7
EXCESS_STANDARD
  0
TEXT
  8
1
  6
CONTINUOUS
 62
     7
 10
6.760708999516915
 20
-9.239451999757778
 30
0.0
 40
1.0
  1
0
 41
0.5
  7
EXCESS_STANDARD
  0
POLYLINE
  8
1
  6
CONTINUOUS
 62
     2
 66
     1
 10
0.0
 20
0.0
 30
0.0
  0
VERTEX
  8
1
  6
CONTINUOUS
 62
     2
 10
6.135709000997064
 20
-1.051637999757762
 30
0.0
  0
VERTEX
  8
1
  6
CONTINUOUS
 62
     2
 10
6.635709000997064
 20
-1.301637999757762
 30
0.0
  0
VERTEX
  8
1
  6
CONTINUOUS
 62
     2
 10
6.635709000997064
 20
-0.8016379997577616
 30
0.0
  0
VERTEX
  8
1
  6
CONTINUOUS
 62
     2
 10
6.135709000997064
 20
-1.051637999757762
 30
0.0
  0
SEQEND
  8
1
  6
CONTINUOUS
 62
     2
  0
POLYLINE
  8
1
  6
CONTINUOUS
 62
     2
 66
     1
 10
0.0
 20
0.0
 30
0.0
  0
VERTEX
  8
1
  6
CONTINUOUS
 62
     2
 10
13.03570900112391
 20
-1.051637999757762
 30
0.0
  0
VERTEX
  8
1
  6
CONTINUOUS
 62
     2
 10
12.53570900112391
 20
-0.8016379997577616
 30
0.0
  0
VERTEX
  8
1
  6
CONTINUOUS
 62
     2
 10
12.53570900112391
 20
-1.301637999757762
 30
0.0
  0
VERTEX
  8
1
  6
CONTINUOUS
 62
     2
 10
13.03570900112391
 20
-1.051637999757762
 30
0.0
  0
SEQEND
  8
1
  6
CONTINUOUS
 62
     2
  0
LINE
  8
1
  6
CONTINUOUS
 62
     2
 10
6.635709000997064
 20
-1.051637999757762
 30
0.0
 11
12.53570900112391
 21
-1.051637999757762
 31
0.0
  0
POLYLINE
  8
1
  6
CONTINUOUS
 62
     2
 66
     1
 10
0.0
 20
0.0
 30
0.0
  0
VERTEX
  8
1
  6
CONTINUOUS
 62
     2
 10
6.135709000997064
 20
0.1611419998109341
 30
0.0
  0
VERTEX
  8
1
  6
CONTINUOUS
 62
     2
 10
6.135709000997064
 20
-1.551637999757762
 30
0.0
  0
SEQEND
  8
1
  6
CONTINUOUS
 62
     2
  0
POLYLINE
  8
1
  6
CONTINUOUS
 62
     2
 66
     1
 10
0.0
 20
0.0
 30
0.0
  0
VERTEX
  8
1
  6
CONTINUOUS
 62
     2
 10
13.03570900112391
 20
-0.4739432942122221
 30
0.0
  0
VERTEX
  8
1
  6
CONTINUOUS
 62
     2
 10
13.03570900112391
 20
-1.551637999757762
 30
0.0
  0
SEQEND
  8
1
  6
CONTINUOUS
 62
     2
  0
TEXT
  8
1
  6
CONTINUOUS
 62
     7
 10
8.710709001060485
 20
-0.8516379997577617
 30
0.0
 40
1.0
  1
6
 41
0.5
  7
EXCESS_STANDARD
  0
TEXT
  8
1
  6
CONTINUOUS
 62
     7
 10
9.210709001060485
 20
-0.8516379997577617
 30
0.0
 40
1.0
  1
.
 41
0.5
  7
EXCESS_STANDARD
  0
TEXT
  8
1
  6
CONTINUOUS
 62
     7
 10
9.460709001060485
 20
-0.8516379997577617
 30
0.0
 40
1.0
  1
9
 41
0.5
  7
EXCESS_STANDARD
  0
TEXT
  8
1
  6
CONTINUOUS
 62
     7
 10
9.960709001060485
 20
-0.8516379997577617
 30
0.0
 40
1.0
  1
0
 41
0.5
  7
EXCESS_STANDARD
  0
POLYLINE
  8
1
  6
CONTINUOUS
 62
     2
 66
     1
 10
0.0
 20
0.0
 30
0.0
  0
VERTEX
  8
1
  6
CONTINUOUS
 62
     2
 10
-1.064291000000002
 20
-5.391886999757762
 30
0.0
  0
VERTEX
  8
1
  6
CONTINUOUS
 62
     2
 10
-0.5642910000000023
 20
-5.641886999757762
 30
0.0
  0
VERTEX
  8
1
  6
CONTINUOUS
 62
     2
 10
-0.5642910000000023
 20
-5.141886999757762
 30
0.0
  0
VERTEX
  8
1
  6
CONTINUOUS
 62
     2
 10
-1.064291000000002
 20
-5.391886999757762
 30
0.0
  0
SEQEND
  8
1
  6
CONTINUOUS
 62
     2
  0
POLYLINE
  8
1
  6
CONTINUOUS
 62
     2
 66
     1
 10
0.0
 20
0.0
 30
0.0
  0
VERTEX
  8
1
  6
CONTINUOUS
 62
     2
 10
13.335709
 20
-5.391886999757762
 30
0.0
  0
VERTEX
  8
1
  6
CONTINUOUS
 62
     2
 10
12.835709
 20
-5.141886999757762
 30
0.0
  0
VERTEX
  8
1
  6
CONTINUOUS
 62
     2
 10
12.835709
 20
-5.641886999757762
 30
0.0
  0
VERTEX
  8
1
  6
CONTINUOUS
 62
     2
 10
13.335709
 20
-5.391886999757762
 30
0.0
  0
SEQEND
  8
1
  6
CONTINUOUS
 62
     2
  0
LINE
  8
1
  6
CONTINUOUS
 62
     2
 10
-0.5642910000000023
 20
-5.391886999757762
 30
0.0
 11
12.835709
 21
-5.391886999757762
 31
0.0
  0
TEXT
  8
1
  6
CONTINUOUS
 62
     7
 10
5.010708999999999
 20
-5.191886999757762
 30
0.0
 40
1.0
  1
1
 41
0.5
  7
EXCESS_STANDARD
  0
TEXT
  8
1
  6
CONTINUOUS
 62
     7
 10
5.510708999999999
 20
-5.191886999757762
 30
0.0
 40
1.0
  1
4
 41
0.5
  7
EXCESS_STANDARD
  0
TEXT
  8
1
  6
CONTINUOUS
 62
     7
 10
6.010708999999999
 20
-5.191886999757762
 30
0.0
 40
1.0
  1
.
 41
0.5
  7
EXCESS_STANDARD
  0
TEXT
  8
1
  6
CONTINUOUS
 62
     7
 10
6.260708999999999
 20
-5.191886999757762
 30
0.0
 40
1.0
  1
4
 41
0.5
  7
EXCESS_STANDARD
  0
TEXT
  8
1
  6
CONTINUOUS
 62
     7
 10
6.760708999999999
 20
-5.191886999757762
 30
0.0
 40
1.0
  1
0
 41
0.5
  7
EXCESS_STANDARD
  0
POLYLINE
  8
1
  6
CONTINUOUS
 62
     2
 66
     1
 10
0.0
 20
0.0
 30
0.0
  0
VERTEX
  8
1
  6
CONTINUOUS
 62
     2
 10
-0.7642909999999999
 20
19.23251099999999
 30
0.0
  0
VERTEX
  8
1
  6
CONTINUOUS
 62
     2
 10
-0.264291
 20
18.98251099999999
 30
0.0
  0
VERTEX
  8
1
  6
CONTINUOUS
 62
     2
 10
-0.2642909999999999
 20
19.48251099999999
 30
0.0
  0
VERTEX
  8
1
  6
CONTINUOUS
 62
     2
 10
-0.7642909999999999
 20
19.23251099999999
 30
0.0
  0
SEQEND
  8
1
  6
CONTINUOUS
 62
     2
  0
POLYLINE
  8
1
  6
CONTINUOUS
 62
     2
 66
     1
 10
0.0
 20
0.0
 30
0.0
  0
VERTEX
  8
1
  6
CONTINUOUS
 62
     2
 10
13.035709
 20
19.23251099999999
 30
0.0
  0
VERTEX
  8
1
  6
CONTINUOUS
 62
     2
 10
12.535709
 20
19.48251099999999
 30
0.0
  0
VERTEX
  8
1
  6
CONTINUOUS
 62
     2
 10
12.535709
 20
18.98251099999999
 30
0.0
  0
VERTEX
  8
1
  6
CONTINUOUS
 62
     2
 10
13.035709
 20
19.23251099999999
 30
0.0
  0
SEQEND
  8
1
  6
CONTINUOUS
 62
     2
  0
LINE
  8
1
  6
CONTINUOUS
 62
     2
 10
-0.2642909999999999
 20
19.23251099999999
 30
0.0
 11
12.535709
 21
19.23251099999999
 31
0.0
  0
POLYLINE
  8
1
  6
CONTINUOUS
 62
     2
 66
     1
 10
0.0
 20
0.0
 30
0.0
  0
VERTEX
  8
1
  6
CONTINUOUS
 62
     2
 10
-0.764291
 20
17.65386800020933
 30
0.0
  0
VERTEX
  8
1
  6
CONTINUOUS
 62
     2
 10
-0.7642909999999999
 20
19.73251099999999
 30
0.0
  0
SEQEND
  8
1
  6
CONTINUOUS
 62
     2
  0
POLYLINE
  8
1
  6
CONTINUOUS
 62
     2
 66
     1
 10
0.0
 20
0.0
 30
0.0
  0
VERTEX
  8
1
  6
CONTINUOUS
 62
     2
 10
13.035709
 20
17.65386800020933
 30
0.0
  0
VERTEX
  8
1
  6
CONTINUOUS
 62
     2
 10
13.035709
 20
19.73251099999999
 30
0.0
  0
SEQEND
  8
1
  6
CONTINUOUS
 62
     2
  0
TEXT
  8
1
  6
CONTINUOUS
 62
     7
 10
5.010709
 20
19.43251099999999
 30
0.0
 40
1.0
  1
1
 41
0.5
  7
EXCESS_STANDARD
  0
TEXT
  8
1
  6
CONTINUOUS
 62
     7
 10
5.510709
 20
19.43251099999999
 30
0.0
 40
1.0
  1
3
 41
0.5
  7
EXCESS_STANDARD
  0
TEXT
  8
1
  6
CONTINUOUS
 62
     7
 10
6.010709
 20
19.43251099999999
 30
0.0
 40
1.0
  1
.
 41
0.5
  7
EXCESS_STANDARD
  0
TEXT
  8
1
  6
CONTINUOUS
 62
     7
 10
6.260709
 20
19.43251099999999
 30
0.0
 40
1.0
  1
8
 41
0.5
  7
EXCESS_STANDARD
  0
TEXT
  8
1
  6
CONTINUOUS
 62
     7
 10
6.760709
 20
19.43251099999999
 30
0.0
 40
1.0
  1
0
 41
0.5
  7
EXCESS_STANDARD
  0
POLYLINE
  8
1
  6
CONTINUOUS
 62
     2
 66
     1
 10
0.0
 20
0.0
 30
0.0
  0
VERTEX
  8
1
  6
CONTINUOUS
 62
     2
 10
17.907559
 20
14.46114200912416
 30
0.0
  0
VERTEX
  8
1
  6
CONTINUOUS
 62
     2
 10
18.157559
 20
14.96114200912416
 30
0.0
  0
VERTEX
  8
1
  6
CONTINUOUS
 62
     2
 10
17.657559
 20
14.96114200912416
 30
0.0
  0
VERTEX
  8
1
  6
CONTINUOUS
 62
     2
 10
17.907559
 20
14.46114200912416
 30
0.0
  0
SEQEND
  8
1
  6
CONTINUOUS
 62
     2
  0
LINE
  8
1
  6
CONTINUOUS
 62
     2
 10
17.907559
 20
14.96114200912416
 30
0.0
 11
17.907559
 21
15.96114200912416
 31
0.0
  0
POLYLINE
  8
1
  6
CONTINUOUS
 62
     2
 66
     1
 10
0.0
 20
0.0
 30
0.0
  0
VERTEX
  8
1
  6
CONTINUOUS
 62
     2
 10
17.907559
 20
12.46114199236035
 30
0.0
  0
VERTEX
  8
1
  6
CONTINUOUS
 62
     2
 10
17.657559
 20
11.96114199236035
 30
0.0
  0
VERTEX
  8
1
  6
CONTINUOUS
 62
     2
 10
18.157559
 20
11.96114199236035
 30
0.0
  0
VERTEX
  8
1
  6
CONTINUOUS
 62
     2
 10
17.907559
 20
12.46114199236035
 30
0.0
  0
SEQEND
  8
1
  6
CONTINUOUS
 62
     2
  0
LINE
  8
1
  6
CONTINUOUS
 62
     2
 10
17.907559
 20
11.96114199236035
 30
0.0
 11
17.907559
 21
10.96114199236035
 31
0.0
  0
LINE
  8
1
  6
CONTINUOUS
 62
     2
 10
17.907559
 20
14.46114200912416
 30
0.0
 11
17.907559
 21
12.46114199236035
 31
0.0
  0
POLYLINE
  8
1
  6
CONTINUOUS
 62
     2
 66
     1
 10
0.0
 20
0.0
 30
0.0
  0
VERTEX
  8
1
  6
CONTINUOUS
 62
     2
 10
12.23570900235204
 20
14.46114200912416
 30
0.0
  0
VERTEX
  8
1
  6
CONTINUOUS
 62
     2
 10
18.407559
 20
14.46114200912416
 30
0.0
  0
SEQEND
  8
1
  6
CONTINUOUS
 62
     2
  0
POLYLINE
  8
1
  6
CONTINUOUS
 62
     2
 66
     1
 10
0.0
 20
0.0
 30
0.0
  0
VERTEX
  8
1
  6
CONTINUOUS
 62
     2
 10
12.23570900235204
 20
12.46114199236035
 30
0.0
  0
VERTEX
  8
1
  6
CONTINUOUS
 62
     2
 10
18.407559
 20
12.46114199236035
 30
0.0
  0
SEQEND
  8
1
  6
CONTINUOUS
 62
     2
  0
TEXT
  8
1
  6
CONTINUOUS
 62
     7
 10
17.707559
 20
12.58614200074226
 30
0.0
 40
1.0
  1
2
 50
90.0
 41
0.5
  7
EXCESS_STANDARD
  0
TEXT
  8
1
  6
CONTINUOUS
 62
     7
 10
17.707559
 20
13.08614200074226
 30
0.0
 40
1.0
  1
.
 50
90.0
 41
0.5
  7
EXCESS_STANDARD
  0
TEXT
  8
1
  6
CONTINUOUS
 62
     7
 10
17.707559
 20
13.33614200074226
 30
0.0
 40
1.0
  1
0
 50
90.0
 41
0.5
  7
EXCESS_STANDARD
  0
TEXT
  8
1
  6
CONTINUOUS
 62
     7
 10
17.707559
 20
13.83614200074226
 30
0.0
 40
1.0
  1
0
 50
90.0
 41
0.5
  7
EXCESS_STANDARD
  0
POLYLINE
  8
1
  6
CONTINUOUS
 62
     2
 66
     1
 10
0.0
 20
0.0
 30
0.0
  0
VERTEX
  8
1
  6
CONTINUOUS
 62
     2
 10
6.135708999999999
 20
-24.550483
 30
0.0
  0
VERTEX
  8
1
  6
CONTINUOUS
 62
     2
 10
6.635708999999999
 20
-24.800483
 30
0.0
  0
VERTEX
  8
1
  6
CONTINUOUS
 62
     2
 10
6.635708999999999
 20
-24.300483
 30
0.0
  0
VERTEX
  8
1
  6
CONTINUOUS
 62
     2
 10
6.135708999999999
 20
-24.550483
 30
0.0
  0
SEQEND
  8
1
  6
CONTINUOUS
 62
     2
  0
POLYLINE
  8
1
  6
CONTINUOUS
 62
     2
 66
     1
 10
0.0
 20
0.0
 30
0.0
  0
VERTEX
  8
1
  6
CONTINUOUS
 62
     2
 10
12.33570900186896
 20
-24.550483
 30
0.0
  0
VERTEX
  8
1
  6
CONTINUOUS
 62
     2
 10
11.83570900186896
 20
-24.300483
 30
0.0
  0
VERTEX
  8
1
  6
CONTINUOUS
 62
     2
 10
11.83570900186896
 20
-24.800483
 30
0.0
  0
VERTEX
  8
1
  6
CONTINUOUS
 62
     2
 10
12.33570900186896
 20
-24.550483
 30
0.0
  0
SEQEND
  8
1
  6
CONTINUOUS
 62
     2
  0
LINE
  8
1
  6
CONTINUOUS
 62
     2
 10
6.635708999999999
 20
-24.550483
 30
0.0
 11
11.83570900186896
 21
-24.550483
 31
0.0
  0
POLYLINE
  8
1
  6
CONTINUOUS
 62
     2
 66
     1
 10
0.0
 20
0.0
 30
0.0
  0
VERTEX
  8
1
  6
CONTINUOUS
 62
     2
 10
6.135708999999999
 20
-24.67991799899055
 30
0.0
  0
VERTEX
  8
1
  6
CONTINUOUS
 62
     2
 10
6.135708999999999
 20
-25.050483
 30
0.0
  0
SEQEND
  8
1
  6
CONTINUOUS
 62
     2
  0
POLYLINE
  8
1
  6
CONTINUOUS
 62
     2
 66
     1
 10
0.0
 20
0.0
 30
0.0
  0
VERTEX
  8
1
  6
CONTINUOUS
 62
     2
 10
12.33570900186896
 20
-22.67991799879819
 30
0.0
  0
VERTEX
  8
1
  6
CONTINUOUS
 62
     2
 10
12.33570900186896
 20
-25.050483
 30
0.0
  0
SEQEND
  8
1
  6
CONTINUOUS
 62
     2
  0
TEXT
  8
1
  6
CONTINUOUS
 62
     7
 10
8.36070900093448
 20
-24.350483
 30
0.0
 40
1.0
  1
6
 41
0.5
  7
EXCESS_STANDARD
  0
TEXT
  8
1
  6
CONTINUOUS
 62
     7
 10
8.86070900093448
 20
-24.350483
 30
0.0
 40
1.0
  1
.
 41
0.5
  7
EXCESS_STANDARD
  0
TEXT
  8
1
  6
CONTINUOUS
 62
     7
 10
9.11070900093448
 20
-24.350483
 30
0.0
 40
1.0
  1
2
 41
0.5
  7
EXCESS_STANDARD
  0
TEXT
  8
1
  6
CONTINUOUS
 62
     7
 10
9.61070900093448
 20
-24.350483
 30
0.0
 40
1.0
  1
0
 41
0.5
  7
EXCESS_STANDARD
  0
POLYLINE
  8
1
  6
CONTINUOUS
 62
     2
 66
     1
 10
0.0
 20
0.0
 30
0.0
  0
VERTEX
  8
1
  6
CONTINUOUS
 62
     2
 10
6.135708999999999
 20
-26.664305
 30
0.0
  0
VERTEX
  8
1
  6
CONTINUOUS
 62
     2
 10
6.635708999999999
 20
-26.914305
 30
0.0
  0
VERTEX
  8
1
  6
CONTINUOUS
 62
     2
 10
6.635708999999999
 20
-26.414305
 30
0.0
  0
VERTEX
  8
1
  6
CONTINUOUS
 62
     2
 10
6.135708999999999
 20
-26.664305
 30
0.0
  0
SEQEND
  8
1
  6
CONTINUOUS
 62
     2
  0
POLYLINE
  8
1
  6
CONTINUOUS
 62
     2
 66
     1
 10
0.0
 20
0.0
 30
0.0
  0
VERTEX
  8
1
  6
CONTINUOUS
 62
     2
 10
13.33570900000632
 20
-26.664305
 30
0.0
  0
VERTEX
  8
1
  6
CONTINUOUS
 62
     2
 10
12.83570900000632
 20
-26.414305
 30
0.0
  0
VERTEX
  8
1
  6
CONTINUOUS
 62
     2
 10
12.83570900000632
 20
-26.914305
 30
0.0
  0
VERTEX
  8
1
  6
CONTINUOUS
 62
     2
 10
13.33570900000632
 20
-26.664305
 30
0.0
  0
SEQEND
  8
1
  6
CONTINUOUS
 62
     2
  0
LINE
  8
1
  6
CONTINUOUS
 62
     2
 10
6.635708999999999
 20
-26.664305
 30
0.0
 11
12.83570900000632
 21
-26.664305
 31
0.0
  0
POLYLINE
  8
1
  6
CONTINUOUS
 62
     2
 66
     1
 10
0.0
 20
0.0
 30
0.0
  0
VERTEX
  8
1
  6
CONTINUOUS
 62
     2
 10
6.135708999999999
 20
-24.67991799899055
 30
0.0
  0
VERTEX
  8
1
  6
CONTINUOUS
 62
     2
 10
6.135708999999999
 20
-27.164305
 30
0.0
  0
SEQEND
  8
1
  6
CONTINUOUS
 62
     2
  0
POLYLINE
  8
1
  6
CONTINUOUS
 62
     2
 66
     1
 10
0.0
 20
0.0
 30
0.0
  0
VERTEX
  8
1
  6
CONTINUOUS
 62
     2
 10
13.33570900000632
 20
-23.2572682660073
 30
0.0
  0
VERTEX
  8
1
  6
CONTINUOUS
 62
     2
 10
13.33570900000632
 20
-27.164305
 30
0.0
  0
SEQEND
  8
1
  6
CONTINUOUS
 62
     2
  0
TEXT
  8
1
  6
CONTINUOUS
 62
     7
 10
8.860709000003158
 20
-26.464305
 30
0.0
 40
1.0
  1
7
 41
0.5
  7
EXCESS_STANDARD
  0
TEXT
  8
1
  6
CONTINUOUS
 62
     7
 10
9.360709000003158
 20
-26.464305
 30
0.0
 40
1.0
  1
.
 41
0.5
  7
EXCESS_STANDARD
  0
TEXT
  8
1
  6
CONTINUOUS
 62
     7
 10
9.610709000003158
 20
-26.464305
 30
0.0
 40
1.0
  1
2
 41
0.5
  7
EXCESS_STANDARD
  0
TEXT
  8
1
  6
CONTINUOUS
 62
     7
 10
10.11070900000316
 20
-26.464305
 30
0.0
 40
1.0
  1
0
 41
0.5
  7
EXCESS_STANDARD
  0
POLYLINE
  8
1
  6
CONTINUOUS
 62
     2
 66
     1
 10
0.0
 20
0.0
 30
0.0
  0
VERTEX
  8
1
  6
CONTINUOUS
 62
     2
 10
50.10895199839146
 20
-9.439451999757779
 30
0.0
  0
VERTEX
  8
1
  6
CONTINUOUS
 62
     2
 10
49.90895199839146
 20
-9.33945199975778
 30
0.0
  0
VERTEX
  8
1
  6
CONTINUOUS
 62
     2
 10
49.90895199839146
 20
-9.539451999757778
 30
0.0
  0
VERTEX
  8
1
  6
CONTINUOUS
 62
     2
 10
50.10895199839146
 20
-9.439451999757779
 30
0.0
  0
SEQEND
  8
1
  6
CONTINUOUS
 62
     2
  0
POLYLINE
  8
1
  6
CONTINUOUS
 62
     2
 66
     1
 10
0.0
 20
0.0
 30
0.0
  0
VERTEX
  8
1
  6
CONTINUOUS
 62
     2
 10
31.10895199839146
 20
-9.439451999757777
 30
0.0
  0
VERTEX
  8
1
  6
CONTINUOUS
 62
     2
 10
31.30895199839146
 20
-9.539451999757777
 30
0.0
  0
VERTEX
  8
1
  6
CONTINUOUS
 62
     2
 10
31.30895199839146
 20
-9.339451999757777
 30
0.0
  0
VERTEX
  8
1
  6
CONTINUOUS
 62
     2
 10
31.10895199839146
 20
-9.439451999757777
 30
0.0
  0
SEQEND
  8
1
  6
CONTINUOUS
 62
     2
  0
LINE
  8
1
  6
CONTINUOUS
 62
     2
 10
49.90895199839146
 20
-9.439451999757779
 30
0.0
 11
31.30895199839146
 21
-9.439451999757777
 31
0.0
  0
POLYLINE
  8
1
  6
CONTINUOUS
 62
     2
 66
     1
 10
0.0
 20
0.0
 30
0.0
  0
VERTEX
  8
1
  6
CONTINUOUS
 62
     2
 10
50.10895199839146
 20
-2.679917999729514
 30
0.0
  0
VERTEX
  8
1
  6
CONTINUOUS
 62
     2
 10
50.10895199839146
 20
-9.939451999757779
 30
0.0
  0
SEQEND
  8
1
  6
CONTINUOUS
 62
     2
  0
POLYLINE
  8
1
  6
CONTINUOUS
 62
     2
 66
     1
 10
0.0
 20
0.0
 30
0.0
  0
VERTEX
  8
1
  6
CONTINUOUS
 62
     2
 10
31.10895199839146
 20
-2.679917999729514
 30
0.0
  0
VERTEX
  8
1
  6
CONTINUOUS
 62
     2
 10
31.10895199839146
 20
-9.939451999757777
 30
0.0
  0
SEQEND
  8
1
  6
CONTINUOUS
 62
     2
  0
TEXT
  8
1
  6
CONTINUOUS
 62
     7
 10
39.48395199839146
 20
-9.239451999757778
 30
0.0
 40
1.0
  1
1
 41
0.5
  7
EXCESS_STANDARD
  0
TEXT
  8
1
  6
CONTINUOUS
 62
     7
 10
39.98395199839146
 20
-9.239451999757778
 30
0.0
 40
1.0
  1
9
 41
0.5
  7
EXCESS_STANDARD
  0
TEXT
  8
1
  6
CONTINUOUS
 62
     7
 10
40.48395199839146
 20
-9.239451999757778
 30
0.0
 40
1.0
  1
.
 41
0.5
  7
EXCESS_STANDARD
  0
TEXT
  8
1
  6
CONTINUOUS
 62
     7
 10
40.73395199839146
 20
-9.239451999757778
 30
0.0
 40
1.0
  1
0
 41
0.5
  7
EXCESS_STANDARD
  0
TEXT
  8
1
  6
CONTINUOUS
 62
     7
 10
41.23395199839146
 20
-9.239451999757778
 30
0.0
 40
1.0
  1
0
 41
0.5
  7
EXCESS_STANDARD
  0
POLYLINE
  8
1
  6
CONTINUOUS
 62
     2
 66
     1
 10
0.0
 20
0.0
 30
0.0
  0
VERTEX
  8
1
  6
CONTINUOUS
 62
     2
 10
32.40895199999999
 20
-5.391886999757762
 30
0.0
  0
VERTEX
  8
1
  6
CONTINUOUS
 62
     2
 10
32.90895199999999
 20
-5.641886999757762
 30
0.0
  0
VERTEX
  8
1
  6
CONTINUOUS
 62
     2
 10
32.90895199999999
 20
-5.141886999757762
 30
0.0
  0
VERTEX
  8
1
  6
CONTINUOUS
 62
     2
 10
32.40895199999999
 20
-5.391886999757762
 30
0.0
  0
SEQEND
  8
1
  6
CONTINUOUS
 62
     2
  0
POLYLINE
  8
1
  6
CONTINUOUS
 62
     2
 66
     1
 10
0.0
 20
0.0
 30
0.0
  0
VERTEX
  8
1
  6
CONTINUOUS
 62
     2
 10
48.80895199999999
 20
-5.391886999757762
 30
0.0
  0
VERTEX
  8
1
  6
CONTINUOUS
 62
     2
 10
48.30895199999999
 20
-5.141886999757762
 30
0.0
  0
VERTEX
  8
1
  6
CONTINUOUS
 62
     2
 10
48.30895199999999
 20
-5.641886999757762
 30
0.0
  0
VERTEX
  8
1
  6
CONTINUOUS
 62
     2
 10
48.80895199999999
 20
-5.391886999757762
 30
0.0
  0
SEQEND
  8
1
  6
CONTINUOUS
 62
     2
  0
LINE
  8
1
  6
CONTINUOUS
 62
     2
 10
32.90895199999999
 20
-5.391886999757762
 30
0.0
 11
48.30895199999999
 21
-5.391886999757762
 31
0.0
  0
TEXT
  8
1
  6
CONTINUOUS
 62
     7
 10
39.48395199999999
 20
-5.191886999757762
 30
0.0
 40
1.0
  1
1
 41
0.5
  7
EXCESS_STANDARD
  0
TEXT
  8
1
  6
CONTINUOUS
 62
     7
 10
39.98395199999999
 20
-5.191886999757762
 30
0.0
 40
1.0
  1
6
 41
0.5
  7
EXCESS_STANDARD
  0
TEXT
  8
1
  6
CONTINUOUS
 62
     7
 10
40.48395199999999
 20
-5.191886999757762
 30
0.0
 40
1.0
  1
.
 41
0.5
  7
EXCESS_STANDARD
  0
TEXT
  8
1
  6
CONTINUOUS
 62
     7
 10
40.73395199999999
 20
-5.191886999757762
 30
0.0
 40
1.0
  1
4
 41
0.5
  7
EXCESS_STANDARD
  0
TEXT
  8
1
  6
CONTINUOUS
 62
     7
 10
41.23395199999999
 20
-5.191886999757762
 30
0.0
 40
1.0
  1
0
 41
0.5
  7
EXCESS_STANDARD
  0
POLYLINE
  8
1
  6
CONTINUOUS
 62
     2
 66
     1
 10
0.0
 20
0.0
 30
0.0
  0
VERTEX
  8
1
  6
CONTINUOUS
 62
     2
 10
32.708952
 20
19.255525
 30
0.0
  0
VERTEX
  8
1
  6
CONTINUOUS
 62
     2
 10
33.208952
 20
19.005525
 30
0.0
  0
VERTEX
  8
1
  6
CONTINUOUS
 62
     2
 10
33.208952
 20
19.505525
 30
0.0
  0
VERTEX
  8
1
  6
CONTINUOUS
 62
     2
 10
32.708952
 20
19.255525
 30
0.0
  0
SEQEND
  8
1
  6
CONTINUOUS
 62
     2
  0
POLYLINE
  8
1
  6
CONTINUOUS
 62
     2
 66
     1
 10
0.0
 20
0.0
 30
0.0
  0
VERTEX
  8
1
  6
CONTINUOUS
 62
     2
 10
48.50895199999999
 20
19.255525
 30
0.0
  0
VERTEX
  8
1
  6
CONTINUOUS
 62
     2
 10
48.00895199999999
 20
19.505525
 30
0.0
  0
VERTEX
  8
1
  6
CONTINUOUS
 62
     2
 10
48.00895199999999
 20
19.005525
 30
0.0
  0
VERTEX
  8
1
  6
CONTINUOUS
 62
     2
 10
48.50895199999999
 20
19.255525
 30
0.0
  0
SEQEND
  8
1
  6
CONTINUOUS
 62
     2
  0
LINE
  8
1
  6
CONTINUOUS
 62
     2
 10
33.208952
 20
19.255525
 30
0.0
 11
48.00895199999999
 21
19.255525
 31
0.0
  0
POLYLINE
  8
1
  6
CONTINUOUS
 62
     2
 66
     1
 10
0.0
 20
0.0
 30
0.0
  0
VERTEX
  8
1
  6
CONTINUOUS
 62
     2
 10
32.708952
 20
17.65386800020933
 30
0.0
  0
VERTEX
  8
1
  6
CONTINUOUS
 62
     2
 10
32.708952
 20
19.755525
 30
0.0
  0
SEQEND
  8
1
  6
CONTINUOUS
 62
     2
  0
POLYLINE
  8
1
  6
CONTINUOUS
 62
     2
 66
     1
 10
0.0
 20
0.0
 30
0.0
  0
VERTEX
  8
1
  6
CONTINUOUS
 62
     2
 10
48.50895199999999
 20
16.13183020991076
 30
0.0
  0
VERTEX
  8
1
  6
CONTINUOUS
 62
     2
 10
48.50895199999999
 20
19.755525
 30
0.0
  0
SEQEND
  8
1
  6
CONTINUOUS
 62
     2
  0
TEXT
  8
1
  6
CONTINUOUS
 62
     7
 10
39.483952
 20
19.455525
 30
0.0
 40
1.0
  1
1
 41
0.5
  7
EXCESS_STANDARD
  0
TEXT
  8
1
  6
CONTINUOUS
 62
     7
 10
39.983952
 20
19.455525
 30
0.0
 40
1.0
  1
5
 41
0.5
  7
EXCESS_STANDARD
  0
TEXT
  8
1
  6
CONTINUOUS
 62
     7
 10
40.483952
 20
19.455525
 30
0.0
 40
1.0
  1
.
 41
0.5
  7
EXCESS_STANDARD
  0
TEXT
  8
1
  6
CONTINUOUS
 62
     7
 10
40.733952
 20
19.455525
 30
0.0
 40
1.0
  1
8
 41
0.5
  7
EXCESS_STANDARD
  0
TEXT
  8
1
  6
CONTINUOUS
 62
     7
 10
41.233952
 20
19.455525
 30
0.0
 40
1.0
  1
0
 41
0.5
  7
EXCESS_STANDARD
  0
POLYLINE
  8
1
  6
CONTINUOUS
 62
     2
 66
     1
 10
0.0
 20
0.0
 30
0.0
  0
VERTEX
  8
1
  6
CONTINUOUS
 62
     2
 10
40.60895199887455
 20
1.138772
 30
0.0
  0
VERTEX
  8
1
  6
CONTINUOUS
 62
     2
 10
41.10895199887455
 20
0.8887719999999999
 30
0.0
  0
VERTEX
  8
1
  6
CONTINUOUS
 62
     2
 10
41.10895199887455
 20
1.388772
 30
0.0
  0
VERTEX
  8
1
  6
CONTINUOUS
 62
     2
 10
40.60895199887455
 20
1.138772
 30
0.0
  0
SEQEND
  8
1
  6
CONTINUOUS
 62
     2
  0
POLYLINE
  8
1
  6
CONTINUOUS
 62
     2
 66
     1
 10
0.0
 20
0.0
 30
0.0
  0
VERTEX
  8
1
  6
CONTINUOUS
 62
     2
 10
47.41895199776939
 20
1.138772
 30
0.0
  0
VERTEX
  8
1
  6
CONTINUOUS
 62
     2
 10
46.91895199776939
 20
1.388772
 30
0.0
  0
VERTEX
  8
1
  6
CONTINUOUS
 62
     2
 10
46.91895199776939
 20
0.8887719999999999
 30
0.0
  0
VERTEX
  8
1
  6
CONTINUOUS
 62
     2
 10
47.41895199776939
 20
1.138772
 30
0.0
  0
SEQEND
  8
1
  6
CONTINUOUS
 62
     2
  0
LINE
  8
1
  6
CONTINUOUS
 62
     2
 10
41.10895199887455
 20
1.138772
 30
0.0
 11
46.91895199776939
 21
1.138772
 31
0.0
  0
POLYLINE
  8
1
  6
CONTINUOUS
 62
     2
 66
     1
 10
0.0
 20
0.0
 30
0.0
  0
VERTEX
  8
1
  6
CONTINUOUS
 62
     2
 10
40.60895199887455
 20
0.7611419998109341
 30
0.0
  0
VERTEX
  8
1
  6
CONTINUOUS
 62
     2
 10
40.60895199887455
 20
1.638772
 30
0.0
  0
SEQEND
  8
1
  6
CONTINUOUS
 62
     2
  0
POLYLINE
  8
1
  6
CONTINUOUS
 62
     2
 66
     1
 10
0.0
 20
0.0
 30
0.0
  0
VERTEX
  8
1
  6
CONTINUOUS
 62
     2
 10
47.41895199776939
 20
0.7611419998109341
 30
0.0
  0
VERTEX
  8
1
  6
CONTINUOUS
 62
     2
 10
47.41895199776939
 20
1.638772
 30
0.0
  0
SEQEND
  8
1
  6
CONTINUOUS
 62
     2
  0
TEXT
  8
1
  6
CONTINUOUS
 62
     7
 10
43.13895199832197
 20
1.338772
 30
0.0
 40
0.9999999999999998
  1
6
 41
0.5000000000000001
  7
EXCESS_STANDARD
  0
TEXT
  8
1
  6
CONTINUOUS
 62
     7
 10
43.63895199832197
 20
1.338772
 30
0.0
 40
0.9999999999999998
  1
.
 41
0.5000000000000001
  7
EXCESS_STANDARD
  0
TEXT
  8
1
  6
CONTINUOUS
 62
     7
 10
43.88895199832197
 20
1.338772
 30
0.0
 40
0.9999999999999998
  1
8
 41
0.5000000000000001
  7
EXCESS_STANDARD
  0
TEXT
  8
1
  6
CONTINUOUS
 62
     7
 10
44.38895199832197
 20
1.338772
 30
0.0
 40
0.9999999999999998
  1
1
 41
0.5000000000000001
  7
EXCESS_STANDARD
  0
POLYLINE
  8
1
  6
CONTINUOUS
 62
     2
 66
     1
 10
0.0
 20
0.0
 30
0.0
  0
VERTEX
  8
1
  6
CONTINUOUS
 62
     2
 10
40.60895199887455
 20
-0.9132899999999999
 30
0.0
  0
VERTEX
  8
1
  6
CONTINUOUS
 62
     2
 10
41.10895199887455
 20
-1.16329
 30
0.0
  0
VERTEX
  8
1
  6
CONTINUOUS
 62
     2
 10
41.10895199887455
 20
-0.66329
 30
0.0
  0
VERTEX
  8
1
  6
CONTINUOUS
 62
     2
 10
40.60895199887455
 20
-0.9132899999999999
 30
0.0
  0
SEQEND
  8
1
  6
CONTINUOUS
 62
     2
  0
POLYLINE
  8
1
  6
CONTINUOUS
 62
     2
 66
     1
 10
0.0
 20
0.0
 30
0.0
  0
VERTEX
  8
1
  6
CONTINUOUS
 62
     2
 10
48.50895199999999
 20
-0.9132899999999999
 30
0.0
  0
VERTEX
  8
1
  6
CONTINUOUS
 62
     2
 10
48.00895199999999
 20
-0.6632899999999999
 30
0.0
  0
VERTEX
  8
1
  6
CONTINUOUS
 62
     2
 10
48.00895199999999
 20
-1.16329
 30
0.0
  0
VERTEX
  8
1
  6
CONTINUOUS
 62
     2
 10
48.50895199999999
 20
-0.9132899999999999
 30
0.0
  0
SEQEND
  8
1
  6
CONTINUOUS
 62
     2
  0
LINE
  8
1
  6
CONTINUOUS
 62
     2
 10
41.10895199887455
 20
-0.91329
 30
0.0
 11
48.00895199999999
 21
-0.9132899999999999
 31
0.0
  0
POLYLINE
  8
1
  6
CONTINUOUS
 62
     2
 66
     1
 10
0.0
 20
0.0
 30
0.0
  0
VERTEX
  8
1
  6
CONTINUOUS
 62
     2
 10
40.60895199887455
 20
0.1611419998109341
 30
0.0
  0
VERTEX
  8
1
  6
CONTINUOUS
 62
     2
 10
40.60895199887455
 20
-1.41329
 30
0.0
  0
SEQEND
  8
1
  6
CONTINUOUS
 62
     2
  0
POLYLINE
  8
1
  6
CONTINUOUS
 62
     2
 66
     1
 10
0.0
 20
0.0
 30
0.0
  0
VERTEX
  8
1
  6
CONTINUOUS
 62
     2
 10
48.50895199999999
 20
-0.4681697946041822
 30
0.0
  0
VERTEX
  8
1
  6
CONTINUOUS
 62
     2
 10
48.50895199999999
 20
-1.41329
 30
0.0
  0
SEQEND
  8
1
  6
CONTINUOUS
 62
     2
  0
TEXT
  8
1
  6
CONTINUOUS
 62
     7
 10
43.68395199943727
 20
-0.71329
 30
0.0
 40
1.0
  1
7
 41
0.5
  7
EXCESS_STANDARD
  0
TEXT
  8
1
  6
CONTINUOUS
 62
     7
 10
44.18395199943727
 20
-0.71329
 30
0.0
 40
1.0
  1
.
 41
0.5
  7
EXCESS_STANDARD
  0
TEXT
  8
1
  6
CONTINUOUS
 62
     7
 10
44.43395199943727
 20
-0.71329
 30
0.0
 40
1.0
  1
9
 41
0.5
  7
EXCESS_STANDARD
  0
TEXT
  8
1
  6
CONTINUOUS
 62
     7
 10
44.93395199943727
 20
-0.71329
 30
0.0
 40
1.0
  1
0
 41
0.5
  7
EXCESS_STANDARD
  0
POLYLINE
  8
1
  6
CONTINUOUS
 62
     2
 66
     1
 10
0.0
 20
0.0
 30
0.0
  0
VERTEX
  8
1
  6
CONTINUOUS
 62
     2
 10
53.29466499999999
 20
12.46114199981093
 30
0.0
  0
VERTEX
  8
1
  6
CONTINUOUS
 62
     2
 10
53.04466499999999
 20
11.96114199981093
 30
0.0
  0
VERTEX
  8
1
  6
CONTINUOUS
 62
     2
 10
53.54466499999999
 20
11.96114199981093
 30
0.0
  0
VERTEX
  8
1
  6
CONTINUOUS
 62
     2
 10
53.29466499999999
 20
12.46114199981093
 30
0.0
  0
SEQEND
  8
1
  6
CONTINUOUS
 62
     2
  0
LINE
  8
1
  6
CONTINUOUS
 62
     2
 10
53.29466499999999
 20
11.96114199981093
 30
0.0
 11
53.29466499999999
 21
10.96114199981093
 31
0.0
  0
POLYLINE
  8
1
  6
CONTINUOUS
 62
     2
 66
     1
 10
0.0
 20
0.0
 30
0.0
  0
VERTEX
  8
1
  6
CONTINUOUS
 62
     2
 10
53.29466499999999
 20
14.46114200167358
 30
0.0
  0
VERTEX
  8
1
  6
CONTINUOUS
 62
     2
 10
53.54466499999999
 20
14.96114200167358
 30
0.0
  0
VERTEX
  8
1
  6
CONTINUOUS
 62
     2
 10
53.04466499999999
 20
14.96114200167358
 30
0.0
  0
VERTEX
  8
1
  6
CONTINUOUS
 62
     2
 10
53.29466499999999
 20
14.46114200167358
 30
0.0
  0
SEQEND
  8
1
  6
CONTINUOUS
 62
     2
  0
LINE
  8
1
  6
CONTINUOUS
 62
     2
 10
53.29466499999999
 20
14.96114200167358
 30
0.0
 11
53.29466499999999
 21
15.96114200167358
 31
0.0
  0
LINE
  8
1
  6
CONTINUOUS
 62
     2
 10
53.29466499999999
 20
12.46114199981093
 30
0.0
 11
53.29466499999999
 21
14.46114200167358
 31
0.0
  0
POLYLINE
  8
1
  6
CONTINUOUS
 62
     2
 66
     1
 10
0.0
 20
0.0
 30
0.0
  0
VERTEX
  8
1
  6
CONTINUOUS
 62
     2
 10
47.71895199887454
 20
12.46114199981093
 30
0.0
  0
VERTEX
  8
1
  6
CONTINUOUS
 62
     2
 10
53.79466499999999
 20
12.46114199981093
 30
0.0
  0
SEQEND
  8
1
  6
CONTINUOUS
 62
     2
  0
POLYLINE
  8
1
  6
CONTINUOUS
 62
     2
 66
     1
 10
0.0
 20
0.0
 30
0.0
  0
VERTEX
  8
1
  6
CONTINUOUS
 62
     2
 10
47.71895199887454
 20
14.46114200167358
 30
0.0
  0
VERTEX
  8
1
  6
CONTINUOUS
 62
     2
 10
53.79466499999999
 20
14.46114200167358
 30
0.0
  0
SEQEND
  8
1
  6
CONTINUOUS
 62
     2
  0
TEXT
  8
1
  6
CONTINUOUS
 62
     7
 10
53.09466499999999
 20
12.58614200074226
 30
0.0
 40
1.0
  1
2
 50
90.0
 41
0.5
  7
EXCESS_STANDARD
  0
TEXT
  8
1
  6
CONTINUOUS
 62
     7
 10
53.09466499999999
 20
13.08614200074226
 30
0.0
 40
1.0
  1
.
 50
90.0
 41
0.5
  7
EXCESS_STANDARD
  0
TEXT
  8
1
  6
CONTINUOUS
 62
     7
 10
53.09466499999999
 20
13.33614200074226
 30
0.0
 40
1.0
  1
0
 50
90.0
 41
0.5
  7
EXCESS_STANDARD
  0
TEXT
  8
1
  6
CONTINUOUS
 62
     7
 10
53.09466499999999
 20
13.83614200074226
 30
0.0
 40
1.0
  1
0
 50
90.0
 41
0.5
  7
EXCESS_STANDARD
  0
POLYLINE
  8
1
  6
CONTINUOUS
 62
     2
 66
     1
 10
0.0
 20
0.0
 30
0.0
  0
VERTEX
  8
1
  6
CONTINUOUS
 62
     2
 10
40.60895199887455
 20
-24.543631
 30
0.0
  0
VERTEX
  8
1
  6
CONTINUOUS
 62
     2
 10
41.10895199887455
 20
-24.793631
 30
0.0
  0
VERTEX
  8
1
  6
CONTINUOUS
 62
     2
 10
41.10895199887455
 20
-24.293631
 30
0.0
  0
VERTEX
  8
1
  6
CONTINUOUS
 62
     2
 10
40.60895199887455
 20
-24.543631
 30
0.0
  0
SEQEND
  8
1
  6
CONTINUOUS
 62
     2
  0
POLYLINE
  8
1
  6
CONTINUOUS
 62
     2
 66
     1
 10
0.0
 20
0.0
 30
0.0
  0
VERTEX
  8
1
  6
CONTINUOUS
 62
     2
 10
47.8189519990995
 20
-24.543631
 30
0.0
  0
VERTEX
  8
1
  6
CONTINUOUS
 62
     2
 10
47.3189519990995
 20
-24.293631
 30
0.0
  0
VERTEX
  8
1
  6
CONTINUOUS
 62
     2
 10
47.3189519990995
 20
-24.793631
 30
0.0
  0
VERTEX
  8
1
  6
CONTINUOUS
 62
     2
 10
47.8189519990995
 20
-24.543631
 30
0.0
  0
SEQEND
  8
1
  6
CONTINUOUS
 62
     2
  0
LINE
  8
1
  6
CONTINUOUS
 62
     2
 10
41.10895199887455
 20
-24.543631
 30
0.0
 11
47.3189519990995
 21
-24.543631
 31
0.0
  0
POLYLINE
  8
1
  6
CONTINUOUS
 62
     2
 66
     1
 10
0.0
 20
0.0
 30
0.0
  0
VERTEX
  8
1
  6
CONTINUOUS
 62
     2
 10
40.60895199887455
 20
-24.67991799899055
 30
0.0
  0
VERTEX
  8
1
  6
CONTINUOUS
 62
     2
 10
40.60895199887455
 20
-25.043631
 30
0.0
  0
SEQEND
  8
1
  6
CONTINUOUS
 62
     2
  0
POLYLINE
  8
1
  6
CONTINUOUS
 62
     2
 66
     1
 10
0.0
 20
0.0
 30
0.0
  0
VERTEX
  8
1
  6
CONTINUOUS
 62
     2
 10
47.8189519990995
 20
-22.67991799997175
 30
0.0
  0
VERTEX
  8
1
  6
CONTINUOUS
 62
     2
 10
47.8189519990995
 20
-25.043631
 30
0.0
  0
SEQEND
  8
1
  6
CONTINUOUS
 62
     2
  0
TEXT
  8
1
  6
CONTINUOUS
 62
     7
 10
43.33895199898702
 20
-24.343631
 30
0.0
 40
1.0
  1
7
 41
0.5
  7
EXCESS_STANDARD
  0
TEXT
  8
1
  6
CONTINUOUS
 62
     7
 10
43.83895199898702
 20
-24.343631
 30
0.0
 40
1.0
  1
.
 41
0.5
  7
EXCESS_STANDARD
  0
TEXT
  8
1
  6
CONTINUOUS
 62
     7
 10
44.08895199898702
 20
-24.343631
 30
0.0
 40
1.0
  1
2
 41
0.5
  7
EXCESS_STANDARD
  0
TEXT
  8
1
  6
CONTINUOUS
 62
     7
 10
44.58895199898702
 20
-24.343631
 30
0.0
 40
1.0
  1
1
 41
0.5
  7
EXCESS_STANDARD
  0
POLYLINE
  8
1
  6
CONTINUOUS
 62
     2
 66
     1
 10
0.0
 20
0.0
 30
0.0
  0
VERTEX
  8
1
  6
CONTINUOUS
 62
     2
 10
40.60895199887455
 20
-26.734844
 30
0.0
  0
VERTEX
  8
1
  6
CONTINUOUS
 62
     2
 10
41.10895199887455
 20
-26.984844
 30
0.0
  0
VERTEX
  8
1
  6
CONTINUOUS
 62
     2
 10
41.10895199887455
 20
-26.484844
 30
0.0
  0
VERTEX
  8
1
  6
CONTINUOUS
 62
     2
 10
40.60895199887455
 20
-26.734844
 30
0.0
  0
SEQEND
  8
1
  6
CONTINUOUS
 62
     2
  0
POLYLINE
  8
1
  6
CONTINUOUS
 62
     2
 66
     1
 10
0.0
 20
0.0
 30
0.0
  0
VERTEX
  8
1
  6
CONTINUOUS
 62
     2
 10
48.80895199999999
 20
-26.734844
 30
0.0
  0
VERTEX
  8
1
  6
CONTINUOUS
 62
     2
 10
48.30895199999999
 20
-26.484844
 30
0.0
  0
VERTEX
  8
1
  6
CONTINUOUS
 62
     2
 10
48.30895199999999
 20
-26.984844
 30
0.0
  0
VERTEX
  8
1
  6
CONTINUOUS
 62
     2
 10
48.80895199999999
 20
-26.734844
 30
0.0
  0
SEQEND
  8
1
  6
CONTINUOUS
 62
     2
  0
LINE
  8
1
  6
CONTINUOUS
 62
     2
 10
41.10895199887455
 20
-26.734844
 30
0.0
 11
48.30895199999999
 21
-26.734844
 31
0.0
  0
POLYLINE
  8
1
  6
CONTINUOUS
 62
     2
 66
     1
 10
0.0
 20
0.0
 30
0.0
  0
VERTEX
  8
1
  6
CONTINUOUS
 62
     2
 10
40.60895199887455
 20
-24.67991799899055
 30
0.0
  0
VERTEX
  8
1
  6
CONTINUOUS
 62
     2
 10
40.60895199887455
 20
-27.234844
 30
0.0
  0
SEQEND
  8
1
  6
CONTINUOUS
 62
     2
  0
POLYLINE
  8
1
  6
CONTINUOUS
 62
     2
 66
     1
 10
0.0
 20
0.0
 30
0.0
  0
VERTEX
  8
1
  6
CONTINUOUS
 62
     2
 10
48.80895199999999
 20
-23.25149476826191
 30
0.0
  0
VERTEX
  8
1
  6
CONTINUOUS
 62
     2
 10
48.80895199999999
 20
-27.234844
 30
0.0
  0
SEQEND
  8
1
  6
CONTINUOUS
 62
     2
  0
TEXT
  8
1
  6
CONTINUOUS
 62
     7
 10
43.83395199943727
 20
-26.534844
 30
0.0
 40
1.0
  1
8
 41
0.5
  7
EXCESS_STANDARD
  0
TEXT
  8
1
  6
CONTINUOUS
 62
     7
 10
44.33395199943727
 20
-26.534844
 30
0.0
 40
1.0
  1
.
 41
0.5
  7
EXCESS_STANDARD
  0
TEXT
  8
1
  6
CONTINUOUS
 62
     7
 10
44.58395199943727
 20
-26.534844
 30
0.0
 40
1.0
  1
2
 41
0.5
  7
EXCESS_STANDARD
  0
TEXT
  8
1
  6
CONTINUOUS
 62
     7
 10
45.08395199943727
 20
-26.534844
 30
0.0
 40
1.0
  1
0
 41
0.5
  7
EXCESS_STANDARD
  0
POLYLINE
  8
1
  6
CONTINUOUS
 62
     2
 66
     1
 10
0.0
 20
0.0
 30
0.0
  0
VERTEX
  8
1
  6
CONTINUOUS
 62
     2
 10
-140.5449030011254
 20
-85.95384099885987
 30
0.0
  0
VERTEX
  8
1
  6
CONTINUOUS
 62
     2
 10
-140.0449030011254
 20
-86.20384099885987
 30
0.0
  0
VERTEX
  8
1
  6
CONTINUOUS
 62
     2
 10
-140.0449030011254
 20
-85.70384099885987
 30
0.0
  0
VERTEX
  8
1
  6
CONTINUOUS
 62
     2
 10
-140.5449030011254
 20
-85.95384099885987
 30
0.0
  0
SEQEND
  8
1
  6
CONTINUOUS
 62
     2
  0
POLYLINE
  8
1
  6
CONTINUOUS
 62
     2
 66
     1
 10
0.0
 20
0.0
 30
0.0
  0
VERTEX
  8
1
  6
CONTINUOUS
 62
     2
 10
-122.1449030004442
 20
-85.95384099885987
 30
0.0
  0
VERTEX
  8
1
  6
CONTINUOUS
 62
     2
 10
-122.6449030004442
 20
-85.70384099885987
 30
0.0
  0
VERTEX
  8
1
  6
CONTINUOUS
 62
     2
 10
-122.6449030004442
 20
-86.20384099885987
 30
0.0
  0
VERTEX
  8
1
  6
CONTINUOUS
 62
     2
 10
-122.1449030004442
 20
-85.95384099885987
 30
0.0
  0
SEQEND
  8
1
  6
CONTINUOUS
 62
     2
  0
LINE
  8
1
  6
CONTINUOUS
 62
     2
 10
-140.0449030011254
 20
-85.95384099885987
 30
0.0
 11
-122.6449030004442
 21
-85.95384099885987
 31
0.0
  0
TEXT
  8
1
  6
CONTINUOUS
 62
     7
 10
-132.4699030007848
 20
-85.75384099885987
 30
0.0
 40
1.0
  1
1
 41
0.5
  7
EXCESS_STANDARD
  0
TEXT
  8
1
  6
CONTINUOUS
 62
     7
 10
-131.9699030007848
 20
-85.75384099885987
 30
0.0
 40
1.0
  1
8
 41
0.5
  7
EXCESS_STANDARD
  0
TEXT
  8
1
  6
CONTINUOUS
 62
     7
 10
-131.4699030007848
 20
-85.75384099885987
 30
0.0
 40
1.0
  1
.
 41
0.5
  7
EXCESS_STANDARD
  0
TEXT
  8
1
  6
CONTINUOUS
 62
     7
 10
-131.2199030007848
 20
-85.75384099885987
 30
0.0
 40
1.0
  1
4
 41
0.5
  7
EXCESS_STANDARD
  0
TEXT
  8
1
  6
CONTINUOUS
 62
     7
 10
-130.7199030007848
 20
-85.75384099885987
 30
0.0
 40
1.0
  1
0
 41
0.5
  7
EXCESS_STANDARD
  0
POLYLINE
  8
1
  6
CONTINUOUS
 62
     2
 66
     1
 10
0.0
 20
0.0
 30
0.0
  0
VERTEX
  8
1
  6
CONTINUOUS
 62
     2
 10
-131.3449030011255
 20
-104.777868
 30
0.0
  0
VERTEX
  8
1
  6
CONTINUOUS
 62
     2
 10
-130.8449030011255
 20
-105.027868
 30
0.0
  0
VERTEX
  8
1
  6
CONTINUOUS
 62
     2
 10
-130.8449030011255
 20
-104.527868
 30
0.0
  0
VERTEX
  8
1
  6
CONTINUOUS
 62
     2
 10
-131.3449030011255
 20
-104.777868
 30
0.0
  0
SEQEND
  8
1
  6
CONTINUOUS
 62
     2
  0
POLYLINE
  8
1
  6
CONTINUOUS
 62
     2
 66
     1
 10
0.0
 20
0.0
 30
0.0
  0
VERTEX
  8
1
  6
CONTINUOUS
 62
     2
 10
-123.3349030017853
 20
-104.777868
 30
0.0
  0
VERTEX
  8
1
  6
CONTINUOUS
 62
     2
 10
-123.8349030017853
 20
-104.527868
 30
0.0
  0
VERTEX
  8
1
  6
CONTINUOUS
 62
     2
 10
-123.8349030017853
 20
-105.027868
 30
0.0
  0
VERTEX
  8
1
  6
CONTINUOUS
 62
     2
 10
-123.3349030017853
 20
-104.777868
 30
0.0
  0
SEQEND
  8
1
  6
CONTINUOUS
 62
     2
  0
LINE
  8
1
  6
CONTINUOUS
 62
     2
 10
-130.8449030011255
 20
-104.777868
 30
0.0
 11
-123.8349030017853
 21
-104.777868
 31
0.0
  0
POLYLINE
  8
1
  6
CONTINUOUS
 62
     2
 66
     1
 10
0.0
 20
0.0
 30
0.0
  0
VERTEX
  8
1
  6
CONTINUOUS
 62
     2
 10
-131.3449030011255
 20
-103.2418719990383
 30
0.0
  0
VERTEX
  8
1
  6
CONTINUOUS
 62
     2
 10
-131.3449030011255
 20
-105.277868
 30
0.0
  0
SEQEND
  8
1
  6
CONTINUOUS
 62
     2
  0
POLYLINE
  8
1
  6
CONTINUOUS
 62
     2
 66
     1
 10
0.0
 20
0.0
 30
0.0
  0
VERTEX
  8
1
  6
CONTINUOUS
 62
     2
 10
-123.3349030017853
 20
-103.2418719979003
 30
0.0
  0
VERTEX
  8
1
  6
CONTINUOUS
 62
     2
 10
-123.3349030017853
 20
-105.277868
 30
0.0
  0
SEQEND
  8
1
  6
CONTINUOUS
 62
     2
  0
TEXT
  8
1
  6
CONTINUOUS
 62
     7
 10
-128.2149030014554
 20
-104.577868
 30
0.0
 40
1.0
  1
8
 41
0.5
  7
EXCESS_STANDARD
  0
TEXT
  8
1
  6
CONTINUOUS
 62
     7
 10
-127.7149030014554
 20
-104.577868
 30
0.0
 40
1.0
  1
.
 41
0.5
  7
EXCESS_STANDARD
  0
TEXT
  8
1
  6
CONTINUOUS
 62
     7
 10
-127.4649030014554
 20
-104.577868
 30
0.0
 40
1.0
  1
0
 41
0.5
  7
EXCESS_STANDARD
  0
TEXT
  8
1
  6
CONTINUOUS
 62
     7
 10
-126.9649030014554
 20
-104.577868
 30
0.0
 40
1.0
  1
1
 41
0.5
  7
EXCESS_STANDARD
  0
POLYLINE
  8
1
  6
CONTINUOUS
 62
     2
 66
     1
 10
0.0
 20
0.0
 30
0.0
  0
VERTEX
  8
1
  6
CONTINUOUS
 62
     2
 10
-131.3449030011255
 20
-106.794405
 30
0.0
  0
VERTEX
  8
1
  6
CONTINUOUS
 62
     2
 10
-130.8449030011255
 20
-107.044405
 30
0.0
  0
VERTEX
  8
1
  6
CONTINUOUS
 62
     2
 10
-130.8449030011255
 20
-106.544405
 30
0.0
  0
VERTEX
  8
1
  6
CONTINUOUS
 62
     2
 10
-131.3449030011255
 20
-106.794405
 30
0.0
  0
SEQEND
  8
1
  6
CONTINUOUS
 62
     2
  0
POLYLINE
  8
1
  6
CONTINUOUS
 62
     2
 66
     1
 10
0.0
 20
0.0
 30
0.0
  0
VERTEX
  8
1
  6
CONTINUOUS
 62
     2
 10
-122.1449030004442
 20
-106.794405
 30
0.0
  0
VERTEX
  8
1
  6
CONTINUOUS
 62
     2
 10
-122.6449030004442
 20
-106.544405
 30
0.0
  0
VERTEX
  8
1
  6
CONTINUOUS
 62
     2
 10
-122.6449030004442
 20
-107.044405
 30
0.0
  0
VERTEX
  8
1
  6
CONTINUOUS
 62
     2
 10
-122.1449030004442
 20
-106.794405
 30
0.0
  0
SEQEND
  8
1
  6
CONTINUOUS
 62
     2
  0
LINE
  8
1
  6
CONTINUOUS
 62
     2
 10
-130.8449030011255
 20
-106.794405
 30
0.0
 11
-122.6449030004442
 21
-106.794405
 31
0.0
  0
POLYLINE
  8
1
  6
CONTINUOUS
 62
     2
 66
     1
 10
0.0
 20
0.0
 30
0.0
  0
VERTEX
  8
1
  6
CONTINUOUS
 62
     2
 10
-131.3449030011255
 20
-103.2418719990383
 30
0.0
  0
VERTEX
  8
1
  6
CONTINUOUS
 62
     2
 10
-131.3449030011255
 20
-107.294405
 30
0.0
  0
SEQEND
  8
1
  6
CONTINUOUS
 62
     2
  0
POLYLINE
  8
1
  6
CONTINUOUS
 62
     2
 66
     1
 10
0.0
 20
0.0
 30
0.0
  0
VERTEX
  8
1
  6
CONTINUOUS
 62
     2
 10
-122.1449030004442
 20
-103.9289188172668
 30
0.0
  0
VERTEX
  8
1
  6
CONTINUOUS
 62
     2
 10
-122.1449030004442
 20
-107.294405
 30
0.0
  0
SEQEND
  8
1
  6
CONTINUOUS
 62
     2
  0
TEXT
  8
1
  6
CONTINUOUS
 62
     7
 10
-127.6199030007848
 20
-106.594405
 30
0.0
 40
1.0
  1
9
 41
0.5
  7
EXCESS_STANDARD
  0
TEXT
  8
1
  6
CONTINUOUS
 62
     7
 10
-127.1199030007848
 20
-106.594405
 30
0.0
 40
1.0
  1
.
 41
0.5
  7
EXCESS_STANDARD
  0
TEXT
  8
1
  6
CONTINUOUS
 62
     7
 10
-126.8699030007848
 20
-106.594405
 30
0.0
 40
1.0
  1
2
 41
0.5
  7
EXCESS_STANDARD
  0
TEXT
  8
1
  6
CONTINUOUS
 62
     7
 10
-126.3699030007848
 20
-106.594405
 30
0.0
 40
1.0
  1
0
 41
0.5
  7
EXCESS_STANDARD
  0
POLYLINE
  8
1
  6
CONTINUOUS
 62
     2
 66
     1
 10
0.0
 20
0.0
 30
0.0
  0
VERTEX
  8
1
  6
CONTINUOUS
 62
     2
 10
-50.78308700055879
 20
-28.217293
 30
0.0
  0
VERTEX
  8
1
  6
CONTINUOUS
 62
     2
 10
-50.28308700055879
 20
-28.467293
 30
0.0
  0
VERTEX
  8
1
  6
CONTINUOUS
 62
     2
 10
-50.28308700055879
 20
-27.967293
 30
0.0
  0
VERTEX
  8
1
  6
CONTINUOUS
 62
     2
 10
-50.78308700055879
 20
-28.217293
 30
0.0
  0
SEQEND
  8
1
  6
CONTINUOUS
 62
     2
  0
POLYLINE
  8
1
  6
CONTINUOUS
 62
     2
 66
     1
 10
0.0
 20
0.0
 30
0.0
  0
VERTEX
  8
1
  6
CONTINUOUS
 62
     2
 10
-45.58308700176838
 20
-28.217293
 30
0.0
  0
VERTEX
  8
1
  6
CONTINUOUS
 62
     2
 10
-46.08308700176838
 20
-27.967293
 30
0.0
  0
VERTEX
  8
1
  6
CONTINUOUS
 62
     2
 10
-46.08308700176838
 20
-28.467293
 30
0.0
  0
VERTEX
  8
1
  6
CONTINUOUS
 62
     2
 10
-45.58308700176838
 20
-28.217293
 30
0.0
  0
SEQEND
  8
1
  6
CONTINUOUS
 62
     2
  0
LINE
  8
1
  6
CONTINUOUS
 62
     2
 10
-50.28308700055879
 20
-28.217293
 30
0.0
 11
-46.08308700176838
 21
-28.217293
 31
0.0
  0
POLYLINE
  8
1
  6
CONTINUOUS
 62
     2
 66
     1
 10
0.0
 20
0.0
 30
0.0
  0
VERTEX
  8
1
  6
CONTINUOUS
 62
     2
 10
-50.78308700055879
 20
-24.67991799923279
 30
0.0
  0
VERTEX
  8
1
  6
CONTINUOUS
 62
     2
 10
-50.78308700055879
 20
-28.717293
 30
0.0
  0
SEQEND
  8
1
  6
CONTINUOUS
 62
     2
  0
POLYLINE
  8
1
  6
CONTINUOUS
 62
     2
 66
     1
 10
0.0
 20
0.0
 30
0.0
  0
VERTEX
  8
1
  6
CONTINUOUS
 62
     2
 10
-45.58308700176838
 20
-23.08406318671704
 30
0.0
  0
VERTEX
  8
1
  6
CONTINUOUS
 62
     2
 10
-45.58308700176838
 20
-28.717293
 30
0.0
  0
SEQEND
  8
1
  6
CONTINUOUS
 62
     2
  0
TEXT
  8
1
  6
CONTINUOUS
 62
     7
 10
-49.05808700116359
 20
-28.017293
 30
0.0
 40
1.0
  1
5
 41
0.5
  7
EXCESS_STANDARD
  0
TEXT
  8
1
  6
CONTINUOUS
 62
     7
 10
-48.55808700116359
 20
-28.017293
 30
0.0
 40
1.0
  1
.
 41
0.5
  7
EXCESS_STANDARD
  0
TEXT
  8
1
  6
CONTINUOUS
 62
     7
 10
-48.30808700116359
 20
-28.017293
 30
0.0
 40
1.0
  1
2
 41
0.5
  7
EXCESS_STANDARD
  0
TEXT
  8
1
  6
CONTINUOUS
 62
     7
 10
-47.80808700116359
 20
-28.017293
 30
0.0
 40
1.0
  1
0
 41
0.5
  7
EXCESS_STANDARD
  0
POLYLINE
  8
1
  6
CONTINUOUS
 62
     2
 66
     1
 10
0.0
 20
0.0
 30
0.0
  0
VERTEX
  8
1
  6
CONTINUOUS
 62
     2
 10
-131.3449030011255
 20
-78.764473
 30
0.0
  0
VERTEX
  8
1
  6
CONTINUOUS
 62
     2
 10
-130.8449030011255
 20
-79.014473
 30
0.0
  0
VERTEX
  8
1
  6
CONTINUOUS
 62
     2
 10
-130.8449030011255
 20
-78.514473
 30
0.0
  0
VERTEX
  8
1
  6
CONTINUOUS
 62
     2
 10
-131.3449030011255
 20
-78.764473
 30
0.0
  0
SEQEND
  8
1
  6
CONTINUOUS
 62
     2
  0
POLYLINE
  8
1
  6
CONTINUOUS
 62
     2
 66
     1
 10
0.0
 20
0.0
 30
0.0
  0
VERTEX
  8
1
  6
CONTINUOUS
 62
     2
 10
-123.8349030011255
 20
-78.764473
 30
0.0
  0
VERTEX
  8
1
  6
CONTINUOUS
 62
     2
 10
-124.3349030011255
 20
-78.514473
 30
0.0
  0
VERTEX
  8
1
  6
CONTINUOUS
 62
     2
 10
-124.3349030011255
 20
-79.014473
 30
0.0
  0
VERTEX
  8
1
  6
CONTINUOUS
 62
     2
 10
-123.8349030011255
 20
-78.764473
 30
0.0
  0
SEQEND
  8
1
  6
CONTINUOUS
 62
     2
  0
LINE
  8
1
  6
CONTINUOUS
 62
     2
 10
-130.8449030011255
 20
-78.764473
 30
0.0
 11
-124.3349030011255
 21
-78.764473
 31
0.0
  0
POLYLINE
  8
1
  6
CONTINUOUS
 62
     2
 66
     1
 10
0.0
 20
0.0
 30
0.0
  0
VERTEX
  8
1
  6
CONTINUOUS
 62
     2
 10
-131.3449030011255
 20
-79.80081200115383
 30
0.0
  0
VERTEX
  8
1
  6
CONTINUOUS
 62
     2
 10
-131.3449030011255
 20
-78.264473
 30
0.0
  0
SEQEND
  8
1
  6
CONTINUOUS
 62
     2
  0
POLYLINE
  8
1
  6
CONTINUOUS
 62
     2
 66
     1
 10
0.0
 20
0.0
 30
0.0
  0
VERTEX
  8
1
  6
CONTINUOUS
 62
     2
 10
-123.8349030011255
 20
-79.80081200115383
 30
0.0
  0
VERTEX
  8
1
  6
CONTINUOUS
 62
     2
 10
-123.8349030011255
 20
-78.264473
 30
0.0
  0
SEQEND
  8
1
  6
CONTINUOUS
 62
     2
  0
TEXT
  8
1
  6
CONTINUOUS
 62
     7
 10
-128.4649030011255
 20
-78.56447299999999
 30
0.0
 40
1.0
  1
7
 41
0.5
  7
EXCESS_STANDARD
  0
TEXT
  8
1
  6
CONTINUOUS
 62
     7
 10
-127.9649030011255
 20
-78.56447299999999
 30
0.0
 40
1.0
  1
.
 41
0.5
  7
EXCESS_STANDARD
  0
TEXT
  8
1
  6
CONTINUOUS
 62
     7
 10
-127.7149030011255
 20
-78.56447299999999
 30
0.0
 40
1.0
  1
5
 41
0.5
  7
EXCESS_STANDARD
  0
TEXT
  8
1
  6
CONTINUOUS
 62
     7
 10
-127.2149030011255
 20
-78.56447299999999
 30
0.0
 40
1.0
  1
1
 41
0.5
  7
EXCESS_STANDARD
  0
POLYLINE
  8
1
  6
CONTINUOUS
 62
     2
 66
     1
 10
0.0
 20
0.0
 30
0.0
  0
VERTEX
  8
1
  6
CONTINUOUS
 62
     2
 10
-131.3449030011255
 20
-82.224463
 30
0.0
  0
VERTEX
  8
1
  6
CONTINUOUS
 62
     2
 10
-130.8449030011255
 20
-82.474463
 30
0.0
  0
VERTEX
  8
1
  6
CONTINUOUS
 62
     2
 10
-130.8449030011255
 20
-81.974463
 30
0.0
  0
VERTEX
  8
1
  6
CONTINUOUS
 62
     2
 10
-131.3449030011255
 20
-82.224463
 30
0.0
  0
SEQEND
  8
1
  6
CONTINUOUS
 62
     2
  0
POLYLINE
  8
1
  6
CONTINUOUS
 62
     2
 66
     1
 10
0.0
 20
0.0
 30
0.0
  0
VERTEX
  8
1
  6
CONTINUOUS
 62
     2
 10
-122.4449030011892
 20
-82.224463
 30
0.0
  0
VERTEX
  8
1
  6
CONTINUOUS
 62
     2
 10
-122.9449030011892
 20
-81.974463
 30
0.0
  0
VERTEX
  8
1
  6
CONTINUOUS
 62
     2
 10
-122.9449030011892
 20
-82.474463
 30
0.0
  0
VERTEX
  8
1
  6
CONTINUOUS
 62
     2
 10
-122.4449030011892
 20
-82.224463
 30
0.0
  0
SEQEND
  8
1
  6
CONTINUOUS
 62
     2
  0
LINE
  8
1
  6
CONTINUOUS
 62
     2
 10
-130.8449030011255
 20
-82.224463
 30
0.0
 11
-122.9449030011892
 21
-82.224463
 31
0.0
  0
POLYLINE
  8
1
  6
CONTINUOUS
 62
     2
 66
     1
 10
0.0
 20
0.0
 30
0.0
  0
VERTEX
  8
1
  6
CONTINUOUS
 62
     2
 10
-131.3449030011255
 20
-80.40081200115382
 30
0.0
  0
VERTEX
  8
1
  6
CONTINUOUS
 62
     2
 10
-131.3449030011255
 20
-82.724463
 30
0.0
  0
SEQEND
  8
1
  6
CONTINUOUS
 62
     2
  0
POLYLINE
  8
1
  6
CONTINUOUS
 62
     2
 66
     1
 10
0.0
 20
0.0
 30
0.0
  0
VERTEX
  8
1
  6
CONTINUOUS
 62
     2
 10
-122.4449030011892
 20
-81.20332887414843
 30
0.0
  0
VERTEX
  8
1
  6
CONTINUOUS
 62
     2
 10
-122.4449030011892
 20
-82.724463
 30
0.0
  0
SEQEND
  8
1
  6
CONTINUOUS
 62
     2
  0
TEXT
  8
1
  6
CONTINUOUS
 62
     7
 10
-127.7699030011573
 20
-82.024463
 30
0.0
 40
1.0
  1
8
 41
0.5
  7
EXCESS_STANDARD
  0
TEXT
  8
1
  6
CONTINUOUS
 62
     7
 10
-127.2699030011573
 20
-82.024463
 30
0.0
 40
1.0
  1
.
 41
0.5
  7
EXCESS_STANDARD
  0
TEXT
  8
1
  6
CONTINUOUS
 62
     7
 10
-127.0199030011573
 20
-82.024463
 30
0.0
 40
1.0
  1
9
 41
0.5
  7
EXCESS_STANDARD
  0
TEXT
  8
1
  6
CONTINUOUS
 62
     7
 10
-126.5199030011573
 20
-82.024463
 30
0.0
 40
1.0
  1
0
 41
0.5
  7
EXCESS_STANDARD
  0
POLYLINE
  8
1
  6
CONTINUOUS
 62
     2
 66
     1
 10
0.0
 20
0.0
 30
0.0
  0
VERTEX
  8
1
  6
CONTINUOUS
 62
     2
 10
6.135708999999999
 20
1.256753
 30
0.0
  0
VERTEX
  8
1
  6
CONTINUOUS
 62
     2
 10
6.835708999999999
 20
1.006753
 30
0.0
  0
VERTEX
  8
1
  6
CONTINUOUS
 62
     2
 10
6.835708999999999
 20
1.506753
 30
0.0
  0
VERTEX
  8
1
  6
CONTINUOUS
 62
     2
 10
6.135708999999999
 20
1.256753
 30
0.0
  0
SEQEND
  8
1
  6
CONTINUOUS
 62
     2
  0
POLYLINE
  8
1
  6
CONTINUOUS
 62
     2
 66
     1
 10
0.0
 20
0.0
 30
0.0
  0
VERTEX
  8
1
  6
CONTINUOUS
 62
     2
 10
11.93570900235204
 20
1.256753
 30
0.0
  0
VERTEX
  8
1
  6
CONTINUOUS
 62
     2
 10
11.23570900235204
 20
1.506753
 30
0.0
  0
VERTEX
  8
1
  6
CONTINUOUS
 62
     2
 10
11.23570900235204
 20
1.006753
 30
0.0
  0
VERTEX
  8
1
  6
CONTINUOUS
 62
     2
 10
11.93570900235204
 20
1.256753
 30
0.0
  0
SEQEND
  8
1
  6
CONTINUOUS
 62
     2
  0
LINE
  8
1
  6
CONTINUOUS
 62
     2
 10
6.835708999999999
 20
1.256753
 30
0.0
 11
11.23570900235204
 21
1.256753
 31
0.0
  0
POLYLINE
  8
1
  6
CONTINUOUS
 62
     2
 66
     1
 10
0.0
 20
0.0
 30
0.0
  0
VERTEX
  8
1
  6
CONTINUOUS
 62
     2
 10
6.135708999999999
 20
0.7611419998109341
 30
0.0
  0
VERTEX
  8
1
  6
CONTINUOUS
 62
     2
 10
6.135708999999999
 20
1.756753
 30
0.0
  0
SEQEND
  8
1
  6
CONTINUOUS
 62
     2
  0
POLYLINE
  8
1
  6
CONTINUOUS
 62
     2
 66
     1
 10
0.0
 20
0.0
 30
0.0
  0
VERTEX
  8
1
  6
CONTINUOUS
 62
     2
 10
11.93570900235204
 20
0.7611420007422567
 30
0.0
  0
VERTEX
  8
1
  6
CONTINUOUS
 62
     2
 10
11.93570900235204
 20
1.756753
 30
0.0
  0
SEQEND
  8
1
  6
CONTINUOUS
 62
     2
  0
TEXT
  8
1
  6
CONTINUOUS
 62
     7
 10
8.16070900117602
 20
1.456753
 30
0.0
 40
1.0
  1
5
 41
0.4999999999999999
  7
EXCESS_STANDARD
  0
TEXT
  8
1
  6
CONTINUOUS
 62
     7
 10
8.66070900117602
 20
1.456753
 30
0.0
 40
1.0
  1
.
 41
0.4999999999999999
  7
EXCESS_STANDARD
  0
TEXT
  8
1
  6
CONTINUOUS
 62
     7
 10
8.91070900117602
 20
1.456753
 30
0.0
 40
1.0
  1
8
 41
0.4999999999999999
  7
EXCESS_STANDARD
  0
TEXT
  8
1
  6
CONTINUOUS
 62
     7
 10
9.41070900117602
 20
1.456753
 30
0.0
 40
1.0
  1
0
 41
0.4999999999999999
  7
EXCESS_STANDARD
  0
TEXT
  8
1
  6
CONTINUOUS
 62
     7
 10
-156.595318
 20
123.170932
 30
0.0
 40
2.5
  1
式
 41
0.8
  7
EXCESS_STANDARD
  0
TEXT
  8
1
  6
CONTINUOUS
 62
     7
 10
-154.095318
 20
123.170932
 30
0.0
 40
2.5
  1
　
 41
0.8
  7
EXCESS_STANDARD
  0
TEXT
  8
1
  6
CONTINUOUS
 62
     7
 10
-151.595318
 20
123.170932
 30
0.0
 40
2.5
  1
Ｄ
 41
0.8
  7
EXCESS_STANDARD
  0
TEXT
  8
1
  6
CONTINUOUS
 62
     7
 10
-149.095318
 20
123.170932
 30
0.0
 40
2.5
  1
２
 41
0.8
  7
EXCESS_STANDARD
  0
TEXT
  8
1
  6
CONTINUOUS
 62
     7
 10
-146.595318
 20
123.170932
 30
0.0
 40
2.5
  1
-
 41
0.4
  7
EXCESS_STANDARD
  0
TEXT
  8
1
  6
CONTINUOUS
 62
     7
 10
-145.095318
 20
123.170932
 30
0.0
 40
2.5
  1
Ｈ
 41
0.8
  7
EXCESS_STANDARD
  0
TEXT
  8
1
  6
CONTINUOUS
 62
     7
 10
-142.595318
 20
123.170932
 30
0.0
 40
2.5
  1
１
 41
0.8
  7
EXCESS_STANDARD
  0
TEXT
  8
1
  6
CONTINUOUS
 62
     7
 10
-140.095318
 20
123.170932
 30
0.0
 40
2.5
  1
÷
 41
0.8
  7
EXCESS_STANDARD
  0
TEXT
  8
1
  6
CONTINUOUS
 62
     7
 10
-137.595318
 20
123.170932
 30
0.0
 40
2.5
  1
２
 41
0.8
  7
EXCESS_STANDARD
  0
TEXT
  8
1
  6
CONTINUOUS
 62
     7
 10
-135.095318
 20
123.170932
 30
0.0
 40
2.5
  1
＝
 41
0.8
  7
EXCESS_STANDARD
  0
TEXT
  8
1
  6
CONTINUOUS
 62
     7
 10
-132.595318
 20
123.170932
 30
0.0
 40
2.5
  1
（
 41
0.8
  7
EXCESS_STANDARD
  0
TEXT
  8
1
  6
CONTINUOUS
 62
     7
 10
-130.095318
 20
123.170932
 30
0.0
 40
2.5
  1
　
 41
0.8
  7
EXCESS_STANDARD
  0
TEXT
  8
1
  6
CONTINUOUS
 62
     7
 10
-127.595318
 20
123.170932
 30
0.0
 40
2.5
  1
　
 41
0.8
  7
EXCESS_STANDARD
  0
TEXT
  8
1
  6
CONTINUOUS
 62
     7
 10
-125.095318
 20
123.170932
 30
0.0
 40
2.5
  1
　
 41
0.8
  7
EXCESS_STANDARD
  0
TEXT
  8
1
  6
CONTINUOUS
 62
     7
 10
-122.595318
 20
123.170932
 30
0.0
 40
2.5
  1
）
 41
0.8
  7
EXCESS_STANDARD
  0
TEXT
  8
1
  6
CONTINUOUS
 62
     7
 10
-104.1722690000001
 20
19.29441199999995
 30
0.0
 40
2.5
  1
Ｍ
 41
0.8
  7
EXCESS_STANDARD
  0
TEXT
  8
1
  6
CONTINUOUS
 62
     7
 10
-101.6722690000001
 20
19.29441199999995
 30
0.0
 40
2.5
  1
6
 41
0.4
  7
EXCESS_STANDARD
  0
TEXT
  8
1
  6
CONTINUOUS
 62
     7
 10
-80.88432600000002
 20
19.54436799999997
 30
0.0
 40
2.5
  1
Ｍ
 41
0.8
  7
EXCESS_STANDARD
  0
TEXT
  8
1
  6
CONTINUOUS
 62
     7
 10
-78.38432600000002
 20
19.54436799999997
 30
0.0
 40
2.5
  1
8
 41
0.4
  7
EXCESS_STANDARD
  0
TEXT
  8
1
  6
CONTINUOUS
 62
     7
 10
-61.28905600000002
 20
21.64654199999998
 30
0.0
 40
2.5
  1
Ｍ
 41
0.8
  7
EXCESS_STANDARD
  0
TEXT
  8
1
  6
CONTINUOUS
 62
     7
 10
-58.78905600000002
 20
21.64654199999998
 30
0.0
 40
2.5
  1
1
 41
0.4
  7
EXCESS_STANDARD
  0
TEXT
  8
1
  6
CONTINUOUS
 62
     7
 10
-57.28905600000002
 20
21.64654199999998
 30
0.0
 40
2.5
  1
0
 41
0.4
  7
EXCESS_STANDARD
  0
TEXT
  8
1
  6
CONTINUOUS
 62
     7
 10
-121.1432199989847
 20
19.29441200024219
 30
0.0
 40
2.5
  1
Ｍ
 41
0.8
  7
EXCESS_STANDARD
  0
TEXT
  8
1
  6
CONTINUOUS
 62
     7
 10
-118.6432199989847
 20
19.29441200024219
 30
0.0
 40
2.5
  1
5
 41
0.4
  7
EXCESS_STANDARD
  0
TEXT
  8
1
  6
CONTINUOUS
 62
     7
 10
-140.1989459989847
 20
19.38939600003285
 30
0.0
 40
2.5
  1
Ｍ
 41
0.8
  7
EXCESS_STANDARD
  0
TEXT
  8
1
  6
CONTINUOUS
 62
     7
 10
-137.6989459989847
 20
19.38939600003285
 30
0.0
 40
2.5
  1
4
 41
0.4
  7
EXCESS_STANDARD
  0
TEXT
  8
1
  6
CONTINUOUS
 62
     7
 10
-34.24821100043829
 20
21.64654199999998
 30
0.0
 40
2.5
  1
Ｍ
 41
0.8
  7
EXCESS_STANDARD
  0
TEXT
  8
1
  6
CONTINUOUS
 62
     7
 10
-31.74821100043829
 20
21.64654199999998
 30
0.0
 40
2.5
  1
1
 41
0.4
  7
EXCESS_STANDARD
  0
TEXT
  8
1
  6
CONTINUOUS
 62
     7
 10
-30.24821100043829
 20
21.64654199999998
 30
0.0
 40
2.5
  1
2
 41
0.4
  7
EXCESS_STANDARD
  0
TEXT
  8
1
  6
CONTINUOUS
 62
     7
 10
-4.370259999441224
 20
21.64654200024222
 30
0.0
 40
2.5
  1
Ｍ
 41
0.8
  7
EXCESS_STANDARD
  0
TEXT
  8
1
  6
CONTINUOUS
 62
     7
 10
-1.870259999441224
 20
21.64654200024222
 30
0.0
 40
2.5
  1
1
 41
0.4
  7
EXCESS_STANDARD
  0
TEXT
  8
1
  6
CONTINUOUS
 62
     7
 10
-0.3702599994412239
 20
21.64654200024222
 30
0.0
 40
2.5
  1
4
 41
0.4
  7
EXCESS_STANDARD
  0
TEXT
  8
1
  6
CONTINUOUS
 62
     7
 10
28.33251900055878
 20
22.05841600024222
 30
0.0
 40
2.5
  1
Ｍ
 41
0.8
  7
EXCESS_STANDARD
  0
TEXT
  8
1
  6
CONTINUOUS
 62
     7
 10
30.83251900055878
 20
22.05841600024222
 30
0.0
 40
2.5
  1
1
 41
0.4
  7
EXCESS_STANDARD
  0
TEXT
  8
1
  6
CONTINUOUS
 62
     7
 10
32.33251900055878
 20
22.05841600024222
 30
0.0
 40
2.5
  1
6
 41
0.4
  7
EXCESS_STANDARD
  0
TEXT
  8
1
  6
CONTINUOUS
 62
     7
 10
-143.6213359994412
 20
-58.50353799975777
 30
0.0
 40
2.5
  1
Ｍ
 41
0.8
  7
EXCESS_STANDARD
  0
TEXT
  8
1
  6
CONTINUOUS
 62
     7
 10
-141.1213359994412
 20
-58.50353799975777
 30
0.0
 40
2.5
  1
1
 41
0.4
  7
EXCESS_STANDARD
  0
TEXT
  8
1
  6
CONTINUOUS
 62
     7
 10
-139.6213359994412
 20
-58.50353799975777
 30
0.0
 40
2.5
  1
8
 41
0.4
  7
EXCESS_STANDARD
  0
LINE
  8
2
  6
BORDER
 62
     4
 10
-232.6331570010153
 20
121.0201740007389
 30
0.0
 11
-232.6331570010153
 21
97.28638800073892
 31
0.0
  0
POLYLINE
  8
2
  6
CONTINUOUS
 62
     3
 66
     1
 10
0.0
 20
0.0
 30
0.0
  0
VERTEX
  8
2
  6
CONTINUOUS
 62
     3
 10
-229.7331570010153
 20
101.8387728671688
 30
0.0
  0
VERTEX
  8
2
  6
CONTINUOUS
 62
     3
 10
-229.7331570010153
 20
102.4161231387424
 30
0.0
  0
VERTEX
  8
2
  6
CONTINUOUS
 62
     3
 10
-230.2331570010153
 20
102.1274480010466
 30
0.0
  0
VERTEX
  8
2
  6
CONTINUOUS
 62
     3
 10
-229.7331570010153
 20
101.8387728671688
 30
0.0
  0
SEQEND
  8
2
  6
CONTINUOUS
 62
     3
  0
LINE
  8
2
  6
BORDER
 62
     4
 10
-94.18704700101537
 20
19.35386799999995
 30
0.0
 11
-94.18704700101537
 21
-4.379918000000032
 31
0.0
  0
POLYLINE
  8
2
  6
CONTINUOUS
 62
     3
 66
     1
 10
0.0
 20
0.0
 30
0.0
  0
VERTEX
  8
2
  6
CONTINUOUS
 62
     3
 10
-91.28704700101537
 20
0.1724668664298008
 30
0.0
  0
VERTEX
  8
2
  6
CONTINUOUS
 62
     3
 10
-91.28704700101537
 20
0.7498171380034933
 30
0.0
  0
VERTEX
  8
2
  6
CONTINUOUS
 62
     3
 10
-91.78704700101537
 20
0.4611420003076603
 30
0.0
  0
VERTEX
  8
2
  6
CONTINUOUS
 62
     3
 10
-91.28704700101537
 20
0.1724668664298008
 30
0.0
  0
SEQEND
  8
2
  6
CONTINUOUS
 62
     3
  0
LINE
  8
2
  6
BORDER
 62
     4
 10
-71.6092410004155
 20
19.35386799999995
 30
0.0
 11
-71.6092410004155
 21
-4.379918000000032
 31
0.0
  0
POLYLINE
  8
2
  6
CONTINUOUS
 62
     3
 66
     1
 10
0.0
 20
0.0
 30
0.0
  0
VERTEX
  8
2
  6
CONTINUOUS
 62
     3
 10
-67.70924100041549
 20
0.0858643228877156
 30
0.0
  0
VERTEX
  8
2
  6
CONTINUOUS
 62
     3
 10
-68.35924100227814
 20
0.4611420001473903
 30
0.0
  0
VERTEX
  8
2
  6
CONTINUOUS
 62
     3
 10
-67.70924100041549
 20
0.8364196757927971
 30
0.0
  0
VERTEX
  8
2
  6
CONTINUOUS
 62
     3
 10
-67.70924100041549
 20
0.0858643228877156
 30
0.0
  0
SEQEND
  8
2
  6
CONTINUOUS
 62
     3
  0
POLYLINE
  8
2
  6
CONTINUOUS
 62
     3
 66
     1
 10
0.0
 20
0.0
 30
0.0
  0
VERTEX
  8
2
  6
CONTINUOUS
 62
     3
 10
-68.35924100227814
 20
-22.37991799939306
 30
0.0
  0
VERTEX
  8
2
  6
CONTINUOUS
 62
     3
 10
-67.6092410004155
 20
-21.94690529689075
 30
0.0
  0
VERTEX
  8
2
  6
CONTINUOUS
 62
     3
 10
-67.6092410004155
 20
-22.81293070375801
 30
0.0
  0
VERTEX
  8
2
  6
CONTINUOUS
 62
     3
 10
-68.35924100227814
 20
-22.37991799939306
 30
0.0
  0
SEQEND
  8
2
  6
CONTINUOUS
 62
     3
  0
POLYLINE
  8
2
  6
CONTINUOUS
 62
     3
 66
     1
 10
0.0
 20
0.0
 30
0.0
  0
VERTEX
  8
2
  6
CONTINUOUS
 62
     3
 10
-91.18704700176548
 20
-22.72632815899337
 30
0.0
  0
VERTEX
  8
2
  6
CONTINUOUS
 62
     3
 10
-91.18704700176548
 20
-22.03350783443088
 30
0.0
  0
VERTEX
  8
2
  6
CONTINUOUS
 62
     3
 10
-91.78704700101537
 20
-22.37991799923277
 30
0.0
  0
VERTEX
  8
2
  6
CONTINUOUS
 62
     3
 10
-91.18704700176548
 20
-22.72632815899337
 30
0.0
  0
SEQEND
  8
2
  6
CONTINUOUS
 62
     3
  0
POLYLINE
  8
2
  6
CONTINUOUS
 62
     3
 66
     1
 10
0.0
 20
0.0
 30
0.0
  0
VERTEX
  8
2
  6
CONTINUOUS
 62
     3
 10
-91.28704700139295
 20
1.172466866429801
 30
0.0
  0
VERTEX
  8
2
  6
CONTINUOUS
 62
     3
 10
-91.28704700139295
 20
1.749817138003479
 30
0.0
  0
VERTEX
  8
2
  6
CONTINUOUS
 62
     3
 10
-91.78704700139295
 20
1.46114200030766
 30
0.0
  0
VERTEX
  8
2
  6
CONTINUOUS
 62
     3
 10
-91.28704700139295
 20
1.172466866429801
 30
0.0
  0
SEQEND
  8
2
  6
CONTINUOUS
 62
     3
  0
POLYLINE
  8
2
  6
CONTINUOUS
 62
     3
 66
     1
 10
0.0
 20
0.0
 30
0.0
  0
VERTEX
  8
2
  6
CONTINUOUS
 62
     3
 10
-91.28704700177053
 20
2.172466866429801
 30
0.0
  0
VERTEX
  8
2
  6
CONTINUOUS
 62
     3
 10
-91.28704700177053
 20
2.749817138003479
 30
0.0
  0
VERTEX
  8
2
  6
CONTINUOUS
 62
     3
 10
-91.78704700177053
 20
2.46114200030766
 30
0.0
  0
VERTEX
  8
2
  6
CONTINUOUS
 62
     3
 10
-91.28704700177053
 20
2.172466866429801
 30
0.0
  0
SEQEND
  8
2
  6
CONTINUOUS
 62
     3
  0
POLYLINE
  8
2
  6
CONTINUOUS
 62
     3
 66
     1
 10
0.0
 20
0.0
 30
0.0
  0
VERTEX
  8
2
  6
CONTINUOUS
 62
     3
 10
-91.28704700214811
 20
3.172466866429772
 30
0.0
  0
VERTEX
  8
2
  6
CONTINUOUS
 62
     3
 10
-91.28704700214811
 20
3.749817138003465
 30
0.0
  0
VERTEX
  8
2
  6
CONTINUOUS
 62
     3
 10
-91.78704700214811
 20
3.461142000307646
 30
0.0
  0
VERTEX
  8
2
  6
CONTINUOUS
 62
     3
 10
-91.28704700214811
 20
3.172466866429772
 30
0.0
  0
SEQEND
  8
2
  6
CONTINUOUS
 62
     3
  0
POLYLINE
  8
2
  6
CONTINUOUS
 62
     3
 66
     1
 10
0.0
 20
0.0
 30
0.0
  0
VERTEX
  8
2
  6
CONTINUOUS
 62
     3
 10
-91.2870470025257
 20
4.172466866429772
 30
0.0
  0
VERTEX
  8
2
  6
CONTINUOUS
 62
     3
 10
-91.2870470025257
 20
4.749817138003451
 30
0.0
  0
VERTEX
  8
2
  6
CONTINUOUS
 62
     3
 10
-91.7870470025257
 20
4.461142000307632
 30
0.0
  0
VERTEX
  8
2
  6
CONTINUOUS
 62
     3
 10
-91.2870470025257
 20
4.172466866429772
 30
0.0
  0
SEQEND
  8
2
  6
CONTINUOUS
 62
     3
  0
POLYLINE
  8
2
  6
CONTINUOUS
 62
     3
 66
     1
 10
0.0
 20
0.0
 30
0.0
  0
VERTEX
  8
2
  6
CONTINUOUS
 62
     3
 10
-91.28704700290328
 20
5.172466866429772
 30
0.0
  0
VERTEX
  8
2
  6
CONTINUOUS
 62
     3
 10
-91.28704700290328
 20
5.749817138003451
 30
0.0
  0
VERTEX
  8
2
  6
CONTINUOUS
 62
     3
 10
-91.78704700290328
 20
5.461142000307632
 30
0.0
  0
VERTEX
  8
2
  6
CONTINUOUS
 62
     3
 10
-91.28704700290328
 20
5.172466866429772
 30
0.0
  0
SEQEND
  8
2
  6
CONTINUOUS
 62
     3
  0
POLYLINE
  8
2
  6
CONTINUOUS
 62
     3
 66
     1
 10
0.0
 20
0.0
 30
0.0
  0
VERTEX
  8
2
  6
CONTINUOUS
 62
     3
 10
-91.28704700328086
 20
6.172466866429772
 30
0.0
  0
VERTEX
  8
2
  6
CONTINUOUS
 62
     3
 10
-91.28704700328086
 20
6.749817138003451
 30
0.0
  0
VERTEX
  8
2
  6
CONTINUOUS
 62
     3
 10
-91.78704700328086
 20
6.461142000307632
 30
0.0
  0
VERTEX
  8
2
  6
CONTINUOUS
 62
     3
 10
-91.28704700328086
 20
6.172466866429772
 30
0.0
  0
SEQEND
  8
2
  6
CONTINUOUS
 62
     3
  0
POLYLINE
  8
2
  6
CONTINUOUS
 62
     3
 66
     1
 10
0.0
 20
0.0
 30
0.0
  0
VERTEX
  8
2
  6
CONTINUOUS
 62
     3
 10
-91.28704700365844
 20
7.172466866429744
 30
0.0
  0
VERTEX
  8
2
  6
CONTINUOUS
 62
     3
 10
-91.28704700365844
 20
7.749817138003436
 30
0.0
  0
VERTEX
  8
2
  6
CONTINUOUS
 62
     3
 10
-91.78704700365844
 20
7.461142000307618
 30
0.0
  0
VERTEX
  8
2
  6
CONTINUOUS
 62
     3
 10
-91.28704700365844
 20
7.172466866429744
 30
0.0
  0
SEQEND
  8
2
  6
CONTINUOUS
 62
     3
  0
POLYLINE
  8
2
  6
CONTINUOUS
 62
     3
 66
     1
 10
0.0
 20
0.0
 30
0.0
  0
VERTEX
  8
2
  6
CONTINUOUS
 62
     3
 10
-91.28704700403603
 20
8.172466866429744
 30
0.0
  0
VERTEX
  8
2
  6
CONTINUOUS
 62
     3
 10
-91.28704700403603
 20
8.749817138003422
 30
0.0
  0
VERTEX
  8
2
  6
CONTINUOUS
 62
     3
 10
-91.78704700403603
 20
8.461142000307603
 30
0.0
  0
VERTEX
  8
2
  6
CONTINUOUS
 62
     3
 10
-91.28704700403603
 20
8.172466866429744
 30
0.0
  0
SEQEND
  8
2
  6
CONTINUOUS
 62
     3
  0
POLYLINE
  8
2
  6
CONTINUOUS
 62
     3
 66
     1
 10
0.0
 20
0.0
 30
0.0
  0
VERTEX
  8
2
  6
CONTINUOUS
 62
     3
 10
-91.28704700441361
 20
9.172466866429744
 30
0.0
  0
VERTEX
  8
2
  6
CONTINUOUS
 62
     3
 10
-91.28704700441361
 20
9.749817138003422
 30
0.0
  0
VERTEX
  8
2
  6
CONTINUOUS
 62
     3
 10
-91.78704700441361
 20
9.461142000307603
 30
0.0
  0
VERTEX
  8
2
  6
CONTINUOUS
 62
     3
 10
-91.28704700441361
 20
9.172466866429744
 30
0.0
  0
SEQEND
  8
2
  6
CONTINUOUS
 62
     3
  0
POLYLINE
  8
2
  6
CONTINUOUS
 62
     3
 66
     1
 10
0.0
 20
0.0
 30
0.0
  0
VERTEX
  8
2
  6
CONTINUOUS
 62
     3
 10
-91.28704700479119
 20
10.17246686642974
 30
0.0
  0
VERTEX
  8
2
  6
CONTINUOUS
 62
     3
 10
-91.28704700479119
 20
10.74981713800342
 30
0.0
  0
VERTEX
  8
2
  6
CONTINUOUS
 62
     3
 10
-91.78704700479119
 20
10.4611420003076
 30
0.0
  0
VERTEX
  8
2
  6
CONTINUOUS
 62
     3
 10
-91.28704700479119
 20
10.17246686642974
 30
0.0
  0
SEQEND
  8
2
  6
CONTINUOUS
 62
     3
  0
POLYLINE
  8
2
  6
CONTINUOUS
 62
     3
 66
     1
 10
0.0
 20
0.0
 30
0.0
  0
VERTEX
  8
2
  6
CONTINUOUS
 62
     3
 10
-91.28704700516877
 20
11.17246686642972
 30
0.0
  0
VERTEX
  8
2
  6
CONTINUOUS
 62
     3
 10
-91.28704700516877
 20
11.74981713800341
 30
0.0
  0
VERTEX
  8
2
  6
CONTINUOUS
 62
     3
 10
-91.78704700516877
 20
11.46114200030759
 30
0.0
  0
VERTEX
  8
2
  6
CONTINUOUS
 62
     3
 10
-91.28704700516877
 20
11.17246686642972
 30
0.0
  0
SEQEND
  8
2
  6
CONTINUOUS
 62
     3
  0
POLYLINE
  8
2
  6
CONTINUOUS
 62
     3
 66
     1
 10
0.0
 20
0.0
 30
0.0
  0
VERTEX
  8
2
  6
CONTINUOUS
 62
     3
 10
-91.28704700554636
 20
12.17246686642972
 30
0.0
  0
VERTEX
  8
2
  6
CONTINUOUS
 62
     3
 10
-91.28704700554636
 20
12.74981713800339
 30
0.0
  0
VERTEX
  8
2
  6
CONTINUOUS
 62
     3
 10
-91.78704700554636
 20
12.46114200030758
 30
0.0
  0
VERTEX
  8
2
  6
CONTINUOUS
 62
     3
 10
-91.28704700554636
 20
12.17246686642972
 30
0.0
  0
SEQEND
  8
2
  6
CONTINUOUS
 62
     3
  0
POLYLINE
  8
2
  6
CONTINUOUS
 62
     3
 66
     1
 10
0.0
 20
0.0
 30
0.0
  0
VERTEX
  8
2
  6
CONTINUOUS
 62
     3
 10
-91.28704700592394
 20
13.17246686642972
 30
0.0
  0
VERTEX
  8
2
  6
CONTINUOUS
 62
     3
 10
-91.28704700592394
 20
13.74981713800339
 30
0.0
  0
VERTEX
  8
2
  6
CONTINUOUS
 62
     3
 10
-91.78704700592394
 20
13.46114200030758
 30
0.0
  0
VERTEX
  8
2
  6
CONTINUOUS
 62
     3
 10
-91.28704700592394
 20
13.17246686642972
 30
0.0
  0
SEQEND
  8
2
  6
CONTINUOUS
 62
     3
  0
POLYLINE
  8
2
  6
CONTINUOUS
 62
     3
 66
     1
 10
0.0
 20
0.0
 30
0.0
  0
VERTEX
  8
2
  6
CONTINUOUS
 62
     3
 10
-91.28704700630152
 20
14.17246686642972
 30
0.0
  0
VERTEX
  8
2
  6
CONTINUOUS
 62
     3
 10
-91.28704700630152
 20
14.74981713800339
 30
0.0
  0
VERTEX
  8
2
  6
CONTINUOUS
 62
     3
 10
-91.78704700630152
 20
14.46114200030758
 30
0.0
  0
VERTEX
  8
2
  6
CONTINUOUS
 62
     3
 10
-91.28704700630152
 20
14.17246686642972
 30
0.0
  0
SEQEND
  8
2
  6
CONTINUOUS
 62
     3
  0
POLYLINE
  8
2
  6
CONTINUOUS
 62
     3
 66
     1
 10
0.0
 20
0.0
 30
0.0
  0
VERTEX
  8
2
  6
CONTINUOUS
 62
     3
 10
-91.2870470066791
 20
15.17246686642969
 30
0.0
  0
VERTEX
  8
2
  6
CONTINUOUS
 62
     3
 10
-91.2870470066791
 20
15.74981713800338
 30
0.0
  0
VERTEX
  8
2
  6
CONTINUOUS
 62
     3
 10
-91.7870470066791
 20
15.46114200030756
 30
0.0
  0
VERTEX
  8
2
  6
CONTINUOUS
 62
     3
 10
-91.2870470066791
 20
15.17246686642969
 30
0.0
  0
SEQEND
  8
2
  6
CONTINUOUS
 62
     3
  0
POLYLINE
  8
2
  6
CONTINUOUS
 62
     3
 66
     1
 10
0.0
 20
0.0
 30
0.0
  0
VERTEX
  8
2
  6
CONTINUOUS
 62
     3
 10
-91.28704700705669
 20
16.17246686642969
 30
0.0
  0
VERTEX
  8
2
  6
CONTINUOUS
 62
     3
 10
-91.28704700705669
 20
16.74981713800337
 30
0.0
  0
VERTEX
  8
2
  6
CONTINUOUS
 62
     3
 10
-91.78704700705669
 20
16.46114200030755
 30
0.0
  0
VERTEX
  8
2
  6
CONTINUOUS
 62
     3
 10
-91.28704700705669
 20
16.17246686642969
 30
0.0
  0
SEQEND
  8
2
  6
CONTINUOUS
 62
     3
  0
POLYLINE
  8
2
  6
CONTINUOUS
 62
     3
 66
     1
 10
0.0
 20
0.0
 30
0.0
  0
VERTEX
  8
2
  6
CONTINUOUS
 62
     3
 10
-91.28704700743427
 20
17.17246686642969
 30
0.0
  0
VERTEX
  8
2
  6
CONTINUOUS
 62
     3
 10
-91.28704700743427
 20
17.74981713800337
 30
0.0
  0
VERTEX
  8
2
  6
CONTINUOUS
 62
     3
 10
-91.78704700743427
 20
17.46114200030755
 30
0.0
  0
VERTEX
  8
2
  6
CONTINUOUS
 62
     3
 10
-91.28704700743427
 20
17.17246686642969
 30
0.0
  0
SEQEND
  8
2
  6
CONTINUOUS
 62
     3
  0
POLYLINE
  8
2
  6
CONTINUOUS
 62
     3
 66
     1
 10
0.0
 20
0.0
 30
0.0
  0
VERTEX
  8
2
  6
CONTINUOUS
 62
     3
 10
-97.08704700101538
 20
0.1724668664298008
 30
0.0
  0
VERTEX
  8
2
  6
CONTINUOUS
 62
     3
 10
-97.08704700101538
 20
0.7498171380034933
 30
0.0
  0
VERTEX
  8
2
  6
CONTINUOUS
 62
     3
 10
-96.58704700101538
 20
0.4611420003076603
 30
0.0
  0
VERTEX
  8
2
  6
CONTINUOUS
 62
     3
 10
-97.08704700101538
 20
0.1724668664298008
 30
0.0
  0
SEQEND
  8
2
  6
CONTINUOUS
 62
     3
  0
POLYLINE
  8
2
  6
CONTINUOUS
 62
     3
 66
     1
 10
0.0
 20
0.0
 30
0.0
  0
VERTEX
  8
2
  6
CONTINUOUS
 62
     3
 10
-97.0870470006378
 20
1.172466866429801
 30
0.0
  0
VERTEX
  8
2
  6
CONTINUOUS
 62
     3
 10
-97.0870470006378
 20
1.749817138003479
 30
0.0
  0
VERTEX
  8
2
  6
CONTINUOUS
 62
     3
 10
-96.5870470006378
 20
1.46114200030766
 30
0.0
  0
VERTEX
  8
2
  6
CONTINUOUS
 62
     3
 10
-97.0870470006378
 20
1.172466866429801
 30
0.0
  0
SEQEND
  8
2
  6
CONTINUOUS
 62
     3
  0
POLYLINE
  8
2
  6
CONTINUOUS
 62
     3
 66
     1
 10
0.0
 20
0.0
 30
0.0
  0
VERTEX
  8
2
  6
CONTINUOUS
 62
     3
 10
-97.08704700026021
 20
2.172466866429801
 30
0.0
  0
VERTEX
  8
2
  6
CONTINUOUS
 62
     3
 10
-97.08704700026021
 20
2.749817138003479
 30
0.0
  0
VERTEX
  8
2
  6
CONTINUOUS
 62
     3
 10
-96.58704700026021
 20
2.46114200030766
 30
0.0
  0
VERTEX
  8
2
  6
CONTINUOUS
 62
     3
 10
-97.08704700026021
 20
2.172466866429801
 30
0.0
  0
SEQEND
  8
2
  6
CONTINUOUS
 62
     3
  0
POLYLINE
  8
2
  6
CONTINUOUS
 62
     3
 66
     1
 10
0.0
 20
0.0
 30
0.0
  0
VERTEX
  8
2
  6
CONTINUOUS
 62
     3
 10
-97.08704699988263
 20
3.172466866429772
 30
0.0
  0
VERTEX
  8
2
  6
CONTINUOUS
 62
     3
 10
-97.08704699988263
 20
3.749817138003465
 30
0.0
  0
VERTEX
  8
2
  6
CONTINUOUS
 62
     3
 10
-96.58704699988263
 20
3.461142000307646
 30
0.0
  0
VERTEX
  8
2
  6
CONTINUOUS
 62
     3
 10
-97.08704699988263
 20
3.172466866429772
 30
0.0
  0
SEQEND
  8
2
  6
CONTINUOUS
 62
     3
  0
POLYLINE
  8
2
  6
CONTINUOUS
 62
     3
 66
     1
 10
0.0
 20
0.0
 30
0.0
  0
VERTEX
  8
2
  6
CONTINUOUS
 62
     3
 10
-97.08704699950505
 20
4.172466866429772
 30
0.0
  0
VERTEX
  8
2
  6
CONTINUOUS
 62
     3
 10
-97.08704699950505
 20
4.749817138003451
 30
0.0
  0
VERTEX
  8
2
  6
CONTINUOUS
 62
     3
 10
-96.58704699950505
 20
4.461142000307632
 30
0.0
  0
VERTEX
  8
2
  6
CONTINUOUS
 62
     3
 10
-97.08704699950505
 20
4.172466866429772
 30
0.0
  0
SEQEND
  8
2
  6
CONTINUOUS
 62
     3
  0
POLYLINE
  8
2
  6
CONTINUOUS
 62
     3
 66
     1
 10
0.0
 20
0.0
 30
0.0
  0
VERTEX
  8
2
  6
CONTINUOUS
 62
     3
 10
-97.08704699912747
 20
5.172466866429772
 30
0.0
  0
VERTEX
  8
2
  6
CONTINUOUS
 62
     3
 10
-97.08704699912747
 20
5.749817138003451
 30
0.0
  0
VERTEX
  8
2
  6
CONTINUOUS
 62
     3
 10
-96.58704699912747
 20
5.461142000307632
 30
0.0
  0
VERTEX
  8
2
  6
CONTINUOUS
 62
     3
 10
-97.08704699912747
 20
5.172466866429772
 30
0.0
  0
SEQEND
  8
2
  6
CONTINUOUS
 62
     3
  0
POLYLINE
  8
2
  6
CONTINUOUS
 62
     3
 66
     1
 10
0.0
 20
0.0
 30
0.0
  0
VERTEX
  8
2
  6
CONTINUOUS
 62
     3
 10
-97.08704699874988
 20
6.172466866429772
 30
0.0
  0
VERTEX
  8
2
  6
CONTINUOUS
 62
     3
 10
-97.08704699874988
 20
6.749817138003451
 30
0.0
  0
VERTEX
  8
2
  6
CONTINUOUS
 62
     3
 10
-96.58704699874988
 20
6.461142000307632
 30
0.0
  0
VERTEX
  8
2
  6
CONTINUOUS
 62
     3
 10
-97.08704699874988
 20
6.172466866429772
 30
0.0
  0
SEQEND
  8
2
  6
CONTINUOUS
 62
     3
  0
POLYLINE
  8
2
  6
CONTINUOUS
 62
     3
 66
     1
 10
0.0
 20
0.0
 30
0.0
  0
VERTEX
  8
2
  6
CONTINUOUS
 62
     3
 10
-97.0870469983723
 20
7.172466866429744
 30
0.0
  0
VERTEX
  8
2
  6
CONTINUOUS
 62
     3
 10
-97.0870469983723
 20
7.749817138003436
 30
0.0
  0
VERTEX
  8
2
  6
CONTINUOUS
 62
     3
 10
-96.5870469983723
 20
7.461142000307618
 30
0.0
  0
VERTEX
  8
2
  6
CONTINUOUS
 62
     3
 10
-97.0870469983723
 20
7.172466866429744
 30
0.0
  0
SEQEND
  8
2
  6
CONTINUOUS
 62
     3
  0
POLYLINE
  8
2
  6
CONTINUOUS
 62
     3
 66
     1
 10
0.0
 20
0.0
 30
0.0
  0
VERTEX
  8
2
  6
CONTINUOUS
 62
     3
 10
-97.08704699799472
 20
8.172466866429744
 30
0.0
  0
VERTEX
  8
2
  6
CONTINUOUS
 62
     3
 10
-97.08704699799472
 20
8.749817138003422
 30
0.0
  0
VERTEX
  8
2
  6
CONTINUOUS
 62
     3
 10
-96.58704699799472
 20
8.461142000307603
 30
0.0
  0
VERTEX
  8
2
  6
CONTINUOUS
 62
     3
 10
-97.08704699799472
 20
8.172466866429744
 30
0.0
  0
SEQEND
  8
2
  6
CONTINUOUS
 62
     3
  0
POLYLINE
  8
2
  6
CONTINUOUS
 62
     3
 66
     1
 10
0.0
 20
0.0
 30
0.0
  0
VERTEX
  8
2
  6
CONTINUOUS
 62
     3
 10
-97.08704699761714
 20
9.172466866429744
 30
0.0
  0
VERTEX
  8
2
  6
CONTINUOUS
 62
     3
 10
-97.08704699761714
 20
9.749817138003422
 30
0.0
  0
VERTEX
  8
2
  6
CONTINUOUS
 62
     3
 10
-96.58704699761714
 20
9.461142000307603
 30
0.0
  0
VERTEX
  8
2
  6
CONTINUOUS
 62
     3
 10
-97.08704699761714
 20
9.172466866429744
 30
0.0
  0
SEQEND
  8
2
  6
CONTINUOUS
 62
     3
  0
POLYLINE
  8
2
  6
CONTINUOUS
 62
     3
 66
     1
 10
0.0
 20
0.0
 30
0.0
  0
VERTEX
  8
2
  6
CONTINUOUS
 62
     3
 10
-97.08704699723955
 20
10.17246686642974
 30
0.0
  0
VERTEX
  8
2
  6
CONTINUOUS
 62
     3
 10
-97.08704699723955
 20
10.74981713800342
 30
0.0
  0
VERTEX
  8
2
  6
CONTINUOUS
 62
     3
 10
-96.58704699723955
 20
10.4611420003076
 30
0.0
  0
VERTEX
  8
2
  6
CONTINUOUS
 62
     3
 10
-97.08704699723955
 20
10.17246686642974
 30
0.0
  0
SEQEND
  8
2
  6
CONTINUOUS
 62
     3
  0
POLYLINE
  8
2
  6
CONTINUOUS
 62
     3
 66
     1
 10
0.0
 20
0.0
 30
0.0
  0
VERTEX
  8
2
  6
CONTINUOUS
 62
     3
 10
-97.08704699686197
 20
11.17246686642972
 30
0.0
  0
VERTEX
  8
2
  6
CONTINUOUS
 62
     3
 10
-97.08704699686197
 20
11.74981713800341
 30
0.0
  0
VERTEX
  8
2
  6
CONTINUOUS
 62
     3
 10
-96.58704699686197
 20
11.46114200030759
 30
0.0
  0
VERTEX
  8
2
  6
CONTINUOUS
 62
     3
 10
-97.08704699686197
 20
11.17246686642972
 30
0.0
  0
SEQEND
  8
2
  6
CONTINUOUS
 62
     3
  0
POLYLINE
  8
2
  6
CONTINUOUS
 62
     3
 66
     1
 10
0.0
 20
0.0
 30
0.0
  0
VERTEX
  8
2
  6
CONTINUOUS
 62
     3
 10
-97.08704699648439
 20
12.17246686642972
 30
0.0
  0
VERTEX
  8
2
  6
CONTINUOUS
 62
     3
 10
-97.08704699648439
 20
12.74981713800339
 30
0.0
  0
VERTEX
  8
2
  6
CONTINUOUS
 62
     3
 10
-96.58704699648439
 20
12.46114200030758
 30
0.0
  0
VERTEX
  8
2
  6
CONTINUOUS
 62
     3
 10
-97.08704699648439
 20
12.17246686642972
 30
0.0
  0
SEQEND
  8
2
  6
CONTINUOUS
 62
     3
  0
POLYLINE
  8
2
  6
CONTINUOUS
 62
     3
 66
     1
 10
0.0
 20
0.0
 30
0.0
  0
VERTEX
  8
2
  6
CONTINUOUS
 62
     3
 10
-97.0870469961068
 20
13.17246686642972
 30
0.0
  0
VERTEX
  8
2
  6
CONTINUOUS
 62
     3
 10
-97.0870469961068
 20
13.74981713800339
 30
0.0
  0
VERTEX
  8
2
  6
CONTINUOUS
 62
     3
 10
-96.5870469961068
 20
13.46114200030758
 30
0.0
  0
VERTEX
  8
2
  6
CONTINUOUS
 62
     3
 10
-97.0870469961068
 20
13.17246686642972
 30
0.0
  0
SEQEND
  8
2
  6
CONTINUOUS
 62
     3
  0
POLYLINE
  8
2
  6
CONTINUOUS
 62
     3
 66
     1
 10
0.0
 20
0.0
 30
0.0
  0
VERTEX
  8
2
  6
CONTINUOUS
 62
     3
 10
-97.08704699572922
 20
14.17246686642972
 30
0.0
  0
VERTEX
  8
2
  6
CONTINUOUS
 62
     3
 10
-97.08704699572922
 20
14.74981713800339
 30
0.0
  0
VERTEX
  8
2
  6
CONTINUOUS
 62
     3
 10
-96.58704699572922
 20
14.46114200030758
 30
0.0
  0
VERTEX
  8
2
  6
CONTINUOUS
 62
     3
 10
-97.08704699572922
 20
14.17246686642972
 30
0.0
  0
SEQEND
  8
2
  6
CONTINUOUS
 62
     3
  0
POLYLINE
  8
2
  6
CONTINUOUS
 62
     3
 66
     1
 10
0.0
 20
0.0
 30
0.0
  0
VERTEX
  8
2
  6
CONTINUOUS
 62
     3
 10
-97.08704699535164
 20
15.17246686642969
 30
0.0
  0
VERTEX
  8
2
  6
CONTINUOUS
 62
     3
 10
-97.08704699535164
 20
15.74981713800338
 30
0.0
  0
VERTEX
  8
2
  6
CONTINUOUS
 62
     3
 10
-96.58704699535164
 20
15.46114200030756
 30
0.0
  0
VERTEX
  8
2
  6
CONTINUOUS
 62
     3
 10
-97.08704699535164
 20
15.17246686642969
 30
0.0
  0
SEQEND
  8
2
  6
CONTINUOUS
 62
     3
  0
POLYLINE
  8
2
  6
CONTINUOUS
 62
     3
 66
     1
 10
0.0
 20
0.0
 30
0.0
  0
VERTEX
  8
2
  6
CONTINUOUS
 62
     3
 10
-97.08704699497406
 20
16.17246686642969
 30
0.0
  0
VERTEX
  8
2
  6
CONTINUOUS
 62
     3
 10
-97.08704699497406
 20
16.74981713800337
 30
0.0
  0
VERTEX
  8
2
  6
CONTINUOUS
 62
     3
 10
-96.58704699497406
 20
16.46114200030755
 30
0.0
  0
VERTEX
  8
2
  6
CONTINUOUS
 62
     3
 10
-97.08704699497406
 20
16.17246686642969
 30
0.0
  0
SEQEND
  8
2
  6
CONTINUOUS
 62
     3
  0
POLYLINE
  8
2
  6
CONTINUOUS
 62
     3
 66
     1
 10
0.0
 20
0.0
 30
0.0
  0
VERTEX
  8
2
  6
CONTINUOUS
 62
     3
 10
-97.08704699459648
 20
17.17246686642969
 30
0.0
  0
VERTEX
  8
2
  6
CONTINUOUS
 62
     3
 10
-97.08704699459648
 20
17.74981713800337
 30
0.0
  0
VERTEX
  8
2
  6
CONTINUOUS
 62
     3
 10
-96.58704699459648
 20
17.46114200030755
 30
0.0
  0
VERTEX
  8
2
  6
CONTINUOUS
 62
     3
 10
-97.08704699459648
 20
17.17246686642969
 30
0.0
  0
SEQEND
  8
2
  6
CONTINUOUS
 62
     3
  0
POLYLINE
  8
2
  6
CONTINUOUS
 62
     3
 66
     1
 10
0.0
 20
0.0
 30
0.0
  0
VERTEX
  8
2
  6
CONTINUOUS
 62
     3
 10
-67.70924099969075
 20
1.335864322887716
 30
0.0
  0
VERTEX
  8
2
  6
CONTINUOUS
 62
     3
 10
-68.3592410015534
 20
1.71114200014739
 30
0.0
  0
VERTEX
  8
2
  6
CONTINUOUS
 62
     3
 10
-67.70924099969075
 20
2.086419675792797
 30
0.0
  0
VERTEX
  8
2
  6
CONTINUOUS
 62
     3
 10
-67.70924099969075
 20
1.335864322887716
 30
0.0
  0
SEQEND
  8
2
  6
CONTINUOUS
 62
     3
  0
POLYLINE
  8
2
  6
CONTINUOUS
 62
     3
 66
     1
 10
0.0
 20
0.0
 30
0.0
  0
VERTEX
  8
2
  6
CONTINUOUS
 62
     3
 10
-67.70924099896601
 20
2.585864322887716
 30
0.0
  0
VERTEX
  8
2
  6
CONTINUOUS
 62
     3
 10
-68.35924100082866
 20
2.96114200014739
 30
0.0
  0
VERTEX
  8
2
  6
CONTINUOUS
 62
     3
 10
-67.70924099896601
 20
3.336419675792797
 30
0.0
  0
VERTEX
  8
2
  6
CONTINUOUS
 62
     3
 10
-67.70924099896601
 20
2.585864322887716
 30
0.0
  0
SEQEND
  8
2
  6
CONTINUOUS
 62
     3
  0
POLYLINE
  8
2
  6
CONTINUOUS
 62
     3
 66
     1
 10
0.0
 20
0.0
 30
0.0
  0
VERTEX
  8
2
  6
CONTINUOUS
 62
     3
 10
-67.70924099824127
 20
3.835864322887716
 30
0.0
  0
VERTEX
  8
2
  6
CONTINUOUS
 62
     3
 10
-68.35924100010392
 20
4.21114200014739
 30
0.0
  0
VERTEX
  8
2
  6
CONTINUOUS
 62
     3
 10
-67.70924099824127
 20
4.586419675792797
 30
0.0
  0
VERTEX
  8
2
  6
CONTINUOUS
 62
     3
 10
-67.70924099824127
 20
3.835864322887716
 30
0.0
  0
SEQEND
  8
2
  6
CONTINUOUS
 62
     3
  0
POLYLINE
  8
2
  6
CONTINUOUS
 62
     3
 66
     1
 10
0.0
 20
0.0
 30
0.0
  0
VERTEX
  8
2
  6
CONTINUOUS
 62
     3
 10
-67.70924099751653
 20
5.085864322887716
 30
0.0
  0
VERTEX
  8
2
  6
CONTINUOUS
 62
     3
 10
-68.35924099937918
 20
5.46114200014739
 30
0.0
  0
VERTEX
  8
2
  6
CONTINUOUS
 62
     3
 10
-67.70924099751653
 20
5.836419675792797
 30
0.0
  0
VERTEX
  8
2
  6
CONTINUOUS
 62
     3
 10
-67.70924099751653
 20
5.085864322887716
 30
0.0
  0
SEQEND
  8
2
  6
CONTINUOUS
 62
     3
  0
POLYLINE
  8
2
  6
CONTINUOUS
 62
     3
 66
     1
 10
0.0
 20
0.0
 30
0.0
  0
VERTEX
  8
2
  6
CONTINUOUS
 62
     3
 10
-67.70924099679179
 20
6.335864322887716
 30
0.0
  0
VERTEX
  8
2
  6
CONTINUOUS
 62
     3
 10
-68.35924099865444
 20
6.71114200014739
 30
0.0
  0
VERTEX
  8
2
  6
CONTINUOUS
 62
     3
 10
-67.70924099679179
 20
7.086419675792797
 30
0.0
  0
VERTEX
  8
2
  6
CONTINUOUS
 62
     3
 10
-67.70924099679179
 20
6.335864322887716
 30
0.0
  0
SEQEND
  8
2
  6
CONTINUOUS
 62
     3
  0
POLYLINE
  8
2
  6
CONTINUOUS
 62
     3
 66
     1
 10
0.0
 20
0.0
 30
0.0
  0
VERTEX
  8
2
  6
CONTINUOUS
 62
     3
 10
-67.70924099606705
 20
7.585864322887716
 30
0.0
  0
VERTEX
  8
2
  6
CONTINUOUS
 62
     3
 10
-68.3592409979297
 20
7.96114200014739
 30
0.0
  0
VERTEX
  8
2
  6
CONTINUOUS
 62
     3
 10
-67.70924099606705
 20
8.336419675792797
 30
0.0
  0
VERTEX
  8
2
  6
CONTINUOUS
 62
     3
 10
-67.70924099606705
 20
7.585864322887716
 30
0.0
  0
SEQEND
  8
2
  6
CONTINUOUS
 62
     3
  0
POLYLINE
  8
2
  6
CONTINUOUS
 62
     3
 66
     1
 10
0.0
 20
0.0
 30
0.0
  0
VERTEX
  8
2
  6
CONTINUOUS
 62
     3
 10
-67.70924099534231
 20
8.835864322887716
 30
0.0
  0
VERTEX
  8
2
  6
CONTINUOUS
 62
     3
 10
-68.35924099720496
 20
9.21114200014739
 30
0.0
  0
VERTEX
  8
2
  6
CONTINUOUS
 62
     3
 10
-67.70924099534231
 20
9.586419675792797
 30
0.0
  0
VERTEX
  8
2
  6
CONTINUOUS
 62
     3
 10
-67.70924099534231
 20
8.835864322887716
 30
0.0
  0
SEQEND
  8
2
  6
CONTINUOUS
 62
     3
  0
POLYLINE
  8
2
  6
CONTINUOUS
 62
     3
 66
     1
 10
0.0
 20
0.0
 30
0.0
  0
VERTEX
  8
2
  6
CONTINUOUS
 62
     3
 10
-67.70924099461757
 20
10.08586432288772
 30
0.0
  0
VERTEX
  8
2
  6
CONTINUOUS
 62
     3
 10
-68.35924099648022
 20
10.46114200014739
 30
0.0
  0
VERTEX
  8
2
  6
CONTINUOUS
 62
     3
 10
-67.70924099461757
 20
10.8364196757928
 30
0.0
  0
VERTEX
  8
2
  6
CONTINUOUS
 62
     3
 10
-67.70924099461757
 20
10.08586432288772
 30
0.0
  0
SEQEND
  8
2
  6
CONTINUOUS
 62
     3
  0
POLYLINE
  8
2
  6
CONTINUOUS
 62
     3
 66
     1
 10
0.0
 20
0.0
 30
0.0
  0
VERTEX
  8
2
  6
CONTINUOUS
 62
     3
 10
-67.70924099389283
 20
11.33586432288772
 30
0.0
  0
VERTEX
  8
2
  6
CONTINUOUS
 62
     3
 10
-68.35924099575548
 20
11.71114200014739
 30
0.0
  0
VERTEX
  8
2
  6
CONTINUOUS
 62
     3
 10
-67.70924099389283
 20
12.0864196757928
 30
0.0
  0
VERTEX
  8
2
  6
CONTINUOUS
 62
     3
 10
-67.70924099389283
 20
11.33586432288772
 30
0.0
  0
SEQEND
  8
2
  6
CONTINUOUS
 62
     3
  0
POLYLINE
  8
2
  6
CONTINUOUS
 62
     3
 66
     1
 10
0.0
 20
0.0
 30
0.0
  0
VERTEX
  8
2
  6
CONTINUOUS
 62
     3
 10
-67.7092409931681
 20
12.58586432288772
 30
0.0
  0
VERTEX
  8
2
  6
CONTINUOUS
 62
     3
 10
-68.35924099503075
 20
12.96114200014739
 30
0.0
  0
VERTEX
  8
2
  6
CONTINUOUS
 62
     3
 10
-67.7092409931681
 20
13.3364196757928
 30
0.0
  0
VERTEX
  8
2
  6
CONTINUOUS
 62
     3
 10
-67.7092409931681
 20
12.58586432288772
 30
0.0
  0
SEQEND
  8
2
  6
CONTINUOUS
 62
     3
  0
POLYLINE
  8
2
  6
CONTINUOUS
 62
     3
 66
     1
 10
0.0
 20
0.0
 30
0.0
  0
VERTEX
  8
2
  6
CONTINUOUS
 62
     3
 10
-67.70924099244336
 20
13.83586432288772
 30
0.0
  0
VERTEX
  8
2
  6
CONTINUOUS
 62
     3
 10
-68.359240994306
 20
14.21114200014739
 30
0.0
  0
VERTEX
  8
2
  6
CONTINUOUS
 62
     3
 10
-67.70924099244336
 20
14.5864196757928
 30
0.0
  0
VERTEX
  8
2
  6
CONTINUOUS
 62
     3
 10
-67.70924099244336
 20
13.83586432288772
 30
0.0
  0
SEQEND
  8
2
  6
CONTINUOUS
 62
     3
  0
POLYLINE
  8
2
  6
CONTINUOUS
 62
     3
 66
     1
 10
0.0
 20
0.0
 30
0.0
  0
VERTEX
  8
2
  6
CONTINUOUS
 62
     3
 10
-67.70924099171862
 20
15.08586432288772
 30
0.0
  0
VERTEX
  8
2
  6
CONTINUOUS
 62
     3
 10
-68.35924099358127
 20
15.46114200014739
 30
0.0
  0
VERTEX
  8
2
  6
CONTINUOUS
 62
     3
 10
-67.70924099171862
 20
15.8364196757928
 30
0.0
  0
VERTEX
  8
2
  6
CONTINUOUS
 62
     3
 10
-67.70924099171862
 20
15.08586432288772
 30
0.0
  0
SEQEND
  8
2
  6
CONTINUOUS
 62
     3
  0
POLYLINE
  8
2
  6
CONTINUOUS
 62
     3
 66
     1
 10
0.0
 20
0.0
 30
0.0
  0
VERTEX
  8
2
  6
CONTINUOUS
 62
     3
 10
-67.70924099099388
 20
16.33586432288772
 30
0.0
  0
VERTEX
  8
2
  6
CONTINUOUS
 62
     3
 10
-68.35924099285653
 20
16.71114200014739
 30
0.0
  0
VERTEX
  8
2
  6
CONTINUOUS
 62
     3
 10
-67.70924099099388
 20
17.0864196757928
 30
0.0
  0
VERTEX
  8
2
  6
CONTINUOUS
 62
     3
 10
-67.70924099099388
 20
16.33586432288772
 30
0.0
  0
SEQEND
  8
2
  6
CONTINUOUS
 62
     3
  0
POLYLINE
  8
2
  6
CONTINUOUS
 62
     3
 66
     1
 10
0.0
 20
0.0
 30
0.0
  0
VERTEX
  8
2
  6
CONTINUOUS
 62
     3
 10
-75.5092410004155
 20
0.0858643228877156
 30
0.0
  0
VERTEX
  8
2
  6
CONTINUOUS
 62
     3
 10
-74.85924099855285
 20
0.4611420001473903
 30
0.0
  0
VERTEX
  8
2
  6
CONTINUOUS
 62
     3
 10
-75.5092410004155
 20
0.8364196757927971
 30
0.0
  0
VERTEX
  8
2
  6
CONTINUOUS
 62
     3
 10
-75.5092410004155
 20
0.0858643228877156
 30
0.0
  0
SEQEND
  8
2
  6
CONTINUOUS
 62
     3
  0
POLYLINE
  8
2
  6
CONTINUOUS
 62
     3
 66
     1
 10
0.0
 20
0.0
 30
0.0
  0
VERTEX
  8
2
  6
CONTINUOUS
 62
     3
 10
-75.50924100114024
 20
1.335864322887716
 30
0.0
  0
VERTEX
  8
2
  6
CONTINUOUS
 62
     3
 10
-74.85924099927759
 20
1.71114200014739
 30
0.0
  0
VERTEX
  8
2
  6
CONTINUOUS
 62
     3
 10
-75.50924100114024
 20
2.086419675792797
 30
0.0
  0
VERTEX
  8
2
  6
CONTINUOUS
 62
     3
 10
-75.50924100114024
 20
1.335864322887716
 30
0.0
  0
SEQEND
  8
2
  6
CONTINUOUS
 62
     3
  0
POLYLINE
  8
2
  6
CONTINUOUS
 62
     3
 66
     1
 10
0.0
 20
0.0
 30
0.0
  0
VERTEX
  8
2
  6
CONTINUOUS
 62
     3
 10
-75.50924100186498
 20
2.585864322887716
 30
0.0
  0
VERTEX
  8
2
  6
CONTINUOUS
 62
     3
 10
-74.85924100000233
 20
2.96114200014739
 30
0.0
  0
VERTEX
  8
2
  6
CONTINUOUS
 62
     3
 10
-75.50924100186498
 20
3.336419675792797
 30
0.0
  0
VERTEX
  8
2
  6
CONTINUOUS
 62
     3
 10
-75.50924100186498
 20
2.585864322887716
 30
0.0
  0
SEQEND
  8
2
  6
CONTINUOUS
 62
     3
  0
POLYLINE
  8
2
  6
CONTINUOUS
 62
     3
 66
     1
 10
0.0
 20
0.0
 30
0.0
  0
VERTEX
  8
2
  6
CONTINUOUS
 62
     3
 10
-75.50924100258972
 20
3.835864322887716
 30
0.0
  0
VERTEX
  8
2
  6
CONTINUOUS
 62
     3
 10
-74.85924100072707
 20
4.21114200014739
 30
0.0
  0
VERTEX
  8
2
  6
CONTINUOUS
 62
     3
 10
-75.50924100258972
 20
4.586419675792797
 30
0.0
  0
VERTEX
  8
2
  6
CONTINUOUS
 62
     3
 10
-75.50924100258972
 20
3.835864322887716
 30
0.0
  0
SEQEND
  8
2
  6
CONTINUOUS
 62
     3
  0
POLYLINE
  8
2
  6
CONTINUOUS
 62
     3
 66
     1
 10
0.0
 20
0.0
 30
0.0
  0
VERTEX
  8
2
  6
CONTINUOUS
 62
     3
 10
-75.50924100331446
 20
5.085864322887716
 30
0.0
  0
VERTEX
  8
2
  6
CONTINUOUS
 62
     3
 10
-74.8592410014518
 20
5.46114200014739
 30
0.0
  0
VERTEX
  8
2
  6
CONTINUOUS
 62
     3
 10
-75.50924100331446
 20
5.836419675792797
 30
0.0
  0
VERTEX
  8
2
  6
CONTINUOUS
 62
     3
 10
-75.50924100331446
 20
5.085864322887716
 30
0.0
  0
SEQEND
  8
2
  6
CONTINUOUS
 62
     3
  0
POLYLINE
  8
2
  6
CONTINUOUS
 62
     3
 66
     1
 10
0.0
 20
0.0
 30
0.0
  0
VERTEX
  8
2
  6
CONTINUOUS
 62
     3
 10
-75.5092410040392
 20
6.335864322887716
 30
0.0
  0
VERTEX
  8
2
  6
CONTINUOUS
 62
     3
 10
-74.85924100217655
 20
6.71114200014739
 30
0.0
  0
VERTEX
  8
2
  6
CONTINUOUS
 62
     3
 10
-75.5092410040392
 20
7.086419675792797
 30
0.0
  0
VERTEX
  8
2
  6
CONTINUOUS
 62
     3
 10
-75.5092410040392
 20
6.335864322887716
 30
0.0
  0
SEQEND
  8
2
  6
CONTINUOUS
 62
     3
  0
POLYLINE
  8
2
  6
CONTINUOUS
 62
     3
 66
     1
 10
0.0
 20
0.0
 30
0.0
  0
VERTEX
  8
2
  6
CONTINUOUS
 62
     3
 10
-75.50924100476394
 20
7.585864322887716
 30
0.0
  0
VERTEX
  8
2
  6
CONTINUOUS
 62
     3
 10
-74.85924100290129
 20
7.96114200014739
 30
0.0
  0
VERTEX
  8
2
  6
CONTINUOUS
 62
     3
 10
-75.50924100476394
 20
8.336419675792797
 30
0.0
  0
VERTEX
  8
2
  6
CONTINUOUS
 62
     3
 10
-75.50924100476394
 20
7.585864322887716
 30
0.0
  0
SEQEND
  8
2
  6
CONTINUOUS
 62
     3
  0
POLYLINE
  8
2
  6
CONTINUOUS
 62
     3
 66
     1
 10
0.0
 20
0.0
 30
0.0
  0
VERTEX
  8
2
  6
CONTINUOUS
 62
     3
 10
-75.50924100548868
 20
8.835864322887716
 30
0.0
  0
VERTEX
  8
2
  6
CONTINUOUS
 62
     3
 10
-74.85924100362602
 20
9.21114200014739
 30
0.0
  0
VERTEX
  8
2
  6
CONTINUOUS
 62
     3
 10
-75.50924100548868
 20
9.586419675792797
 30
0.0
  0
VERTEX
  8
2
  6
CONTINUOUS
 62
     3
 10
-75.50924100548868
 20
8.835864322887716
 30
0.0
  0
SEQEND
  8
2
  6
CONTINUOUS
 62
     3
  0
POLYLINE
  8
2
  6
CONTINUOUS
 62
     3
 66
     1
 10
0.0
 20
0.0
 30
0.0
  0
VERTEX
  8
2
  6
CONTINUOUS
 62
     3
 10
-75.50924100621341
 20
10.08586432288772
 30
0.0
  0
VERTEX
  8
2
  6
CONTINUOUS
 62
     3
 10
-74.85924100435076
 20
10.46114200014739
 30
0.0
  0
VERTEX
  8
2
  6
CONTINUOUS
 62
     3
 10
-75.50924100621341
 20
10.8364196757928
 30
0.0
  0
VERTEX
  8
2
  6
CONTINUOUS
 62
     3
 10
-75.50924100621341
 20
10.08586432288772
 30
0.0
  0
SEQEND
  8
2
  6
CONTINUOUS
 62
     3
  0
POLYLINE
  8
2
  6
CONTINUOUS
 62
     3
 66
     1
 10
0.0
 20
0.0
 30
0.0
  0
VERTEX
  8
2
  6
CONTINUOUS
 62
     3
 10
-75.50924100693815
 20
11.33586432288772
 30
0.0
  0
VERTEX
  8
2
  6
CONTINUOUS
 62
     3
 10
-74.8592410050755
 20
11.71114200014739
 30
0.0
  0
VERTEX
  8
2
  6
CONTINUOUS
 62
     3
 10
-75.50924100693815
 20
12.0864196757928
 30
0.0
  0
VERTEX
  8
2
  6
CONTINUOUS
 62
     3
 10
-75.50924100693815
 20
11.33586432288772
 30
0.0
  0
SEQEND
  8
2
  6
CONTINUOUS
 62
     3
  0
POLYLINE
  8
2
  6
CONTINUOUS
 62
     3
 66
     1
 10
0.0
 20
0.0
 30
0.0
  0
VERTEX
  8
2
  6
CONTINUOUS
 62
     3
 10
-75.5092410076629
 20
12.58586432288772
 30
0.0
  0
VERTEX
  8
2
  6
CONTINUOUS
 62
     3
 10
-74.85924100580024
 20
12.96114200014739
 30
0.0
  0
VERTEX
  8
2
  6
CONTINUOUS
 62
     3
 10
-75.5092410076629
 20
13.3364196757928
 30
0.0
  0
VERTEX
  8
2
  6
CONTINUOUS
 62
     3
 10
-75.5092410076629
 20
12.58586432288772
 30
0.0
  0
SEQEND
  8
2
  6
CONTINUOUS
 62
     3
  0
POLYLINE
  8
2
  6
CONTINUOUS
 62
     3
 66
     1
 10
0.0
 20
0.0
 30
0.0
  0
VERTEX
  8
2
  6
CONTINUOUS
 62
     3
 10
-75.50924100838763
 20
13.83586432288772
 30
0.0
  0
VERTEX
  8
2
  6
CONTINUOUS
 62
     3
 10
-74.85924100652498
 20
14.21114200014739
 30
0.0
  0
VERTEX
  8
2
  6
CONTINUOUS
 62
     3
 10
-75.50924100838763
 20
14.5864196757928
 30
0.0
  0
VERTEX
  8
2
  6
CONTINUOUS
 62
     3
 10
-75.50924100838763
 20
13.83586432288772
 30
0.0
  0
SEQEND
  8
2
  6
CONTINUOUS
 62
     3
  0
POLYLINE
  8
2
  6
CONTINUOUS
 62
     3
 66
     1
 10
0.0
 20
0.0
 30
0.0
  0
VERTEX
  8
2
  6
CONTINUOUS
 62
     3
 10
-75.50924100911237
 20
15.08586432288772
 30
0.0
  0
VERTEX
  8
2
  6
CONTINUOUS
 62
     3
 10
-74.85924100724972
 20
15.46114200014739
 30
0.0
  0
VERTEX
  8
2
  6
CONTINUOUS
 62
     3
 10
-75.50924100911237
 20
15.8364196757928
 30
0.0
  0
VERTEX
  8
2
  6
CONTINUOUS
 62
     3
 10
-75.50924100911237
 20
15.08586432288772
 30
0.0
  0
SEQEND
  8
2
  6
CONTINUOUS
 62
     3
  0
POLYLINE
  8
2
  6
CONTINUOUS
 62
     3
 66
     1
 10
0.0
 20
0.0
 30
0.0
  0
VERTEX
  8
2
  6
CONTINUOUS
 62
     3
 10
-75.50924100983711
 20
16.33586432288772
 30
0.0
  0
VERTEX
  8
2
  6
CONTINUOUS
 62
     3
 10
-74.85924100797446
 20
16.71114200014739
 30
0.0
  0
VERTEX
  8
2
  6
CONTINUOUS
 62
     3
 10
-75.50924100983711
 20
17.0864196757928
 30
0.0
  0
VERTEX
  8
2
  6
CONTINUOUS
 62
     3
 10
-75.50924100983711
 20
16.33586432288772
 30
0.0
  0
SEQEND
  8
2
  6
CONTINUOUS
 62
     3
  0
LINE
  8
2
  6
BORDER
 62
     4
 10
-50.78308700055879
 20
19.35386799999995
 30
0.0
 11
-50.78308700055879
 21
-4.379918000000032
 31
0.0
  0
LINE
  8
2
  6
BORDER
 62
     4
 10
-111.157998
 20
19.35386800024219
 30
0.0
 11
-111.157998
 21
-4.379917999757794
 31
0.0
  0
POLYLINE
  8
2
  6
CONTINUOUS
 62
     3
 66
     1
 10
0.0
 20
0.0
 30
0.0
  0
VERTEX
  8
2
  6
CONTINUOUS
 62
     3
 10
-108.757998
 20
0.24174889549613
 30
0.0
  0
VERTEX
  8
2
  6
CONTINUOUS
 62
     3
 10
-108.757998
 20
0.6805351025971276
 30
0.0
  0
VERTEX
  8
2
  6
CONTINUOUS
 62
     3
 10
-109.137998
 20
0.4611419979482889
 30
0.0
  0
VERTEX
  8
2
  6
CONTINUOUS
 62
     3
 10
-108.757998
 20
0.24174889549613
 30
0.0
  0
SEQEND
  8
2
  6
CONTINUOUS
 62
     3
  0
POLYLINE
  8
2
  6
CONTINUOUS
 62
     3
 66
     1
 10
0.0
 20
0.0
 30
0.0
  0
VERTEX
  8
2
  6
CONTINUOUS
 62
     3
 10
-108.7579979997873
 20
1.04174889549613
 30
0.0
  0
VERTEX
  8
2
  6
CONTINUOUS
 62
     3
 10
-108.7579979997873
 20
1.480535102597128
 30
0.0
  0
VERTEX
  8
2
  6
CONTINUOUS
 62
     3
 10
-109.1379979997873
 20
1.261141997948289
 30
0.0
  0
VERTEX
  8
2
  6
CONTINUOUS
 62
     3
 10
-108.7579979997873
 20
1.04174889549613
 30
0.0
  0
SEQEND
  8
2
  6
CONTINUOUS
 62
     3
  0
POLYLINE
  8
2
  6
CONTINUOUS
 62
     3
 66
     1
 10
0.0
 20
0.0
 30
0.0
  0
VERTEX
  8
2
  6
CONTINUOUS
 62
     3
 10
-108.7579979995747
 20
1.84174889549613
 30
0.0
  0
VERTEX
  8
2
  6
CONTINUOUS
 62
     3
 10
-108.7579979995747
 20
2.280535102597128
 30
0.0
  0
VERTEX
  8
2
  6
CONTINUOUS
 62
     3
 10
-109.1379979995747
 20
2.061141997948289
 30
0.0
  0
VERTEX
  8
2
  6
CONTINUOUS
 62
     3
 10
-108.7579979995747
 20
1.84174889549613
 30
0.0
  0
SEQEND
  8
2
  6
CONTINUOUS
 62
     3
  0
POLYLINE
  8
2
  6
CONTINUOUS
 62
     3
 66
     1
 10
0.0
 20
0.0
 30
0.0
  0
VERTEX
  8
2
  6
CONTINUOUS
 62
     3
 10
-108.757997999362
 20
2.64174889549613
 30
0.0
  0
VERTEX
  8
2
  6
CONTINUOUS
 62
     3
 10
-108.757997999362
 20
3.080535102597128
 30
0.0
  0
VERTEX
  8
2
  6
CONTINUOUS
 62
     3
 10
-109.137997999362
 20
2.861141997948289
 30
0.0
  0
VERTEX
  8
2
  6
CONTINUOUS
 62
     3
 10
-108.757997999362
 20
2.64174889549613
 30
0.0
  0
SEQEND
  8
2
  6
CONTINUOUS
 62
     3
  0
POLYLINE
  8
2
  6
CONTINUOUS
 62
     3
 66
     1
 10
0.0
 20
0.0
 30
0.0
  0
VERTEX
  8
2
  6
CONTINUOUS
 62
     3
 10
-108.7579979991493
 20
3.44174889549613
 30
0.0
  0
VERTEX
  8
2
  6
CONTINUOUS
 62
     3
 10
-108.7579979991493
 20
3.880535102597128
 30
0.0
  0
VERTEX
  8
2
  6
CONTINUOUS
 62
     3
 10
-109.1379979991493
 20
3.661141997948289
 30
0.0
  0
VERTEX
  8
2
  6
CONTINUOUS
 62
     3
 10
-108.7579979991493
 20
3.44174889549613
 30
0.0
  0
SEQEND
  8
2
  6
CONTINUOUS
 62
     3
  0
POLYLINE
  8
2
  6
CONTINUOUS
 62
     3
 66
     1
 10
0.0
 20
0.0
 30
0.0
  0
VERTEX
  8
2
  6
CONTINUOUS
 62
     3
 10
-108.7579979989367
 20
4.24174889549613
 30
0.0
  0
VERTEX
  8
2
  6
CONTINUOUS
 62
     3
 10
-108.7579979989367
 20
4.680535102597128
 30
0.0
  0
VERTEX
  8
2
  6
CONTINUOUS
 62
     3
 10
-109.1379979989367
 20
4.461141997948289
 30
0.0
  0
VERTEX
  8
2
  6
CONTINUOUS
 62
     3
 10
-108.7579979989367
 20
4.24174889549613
 30
0.0
  0
SEQEND
  8
2
  6
CONTINUOUS
 62
     3
  0
POLYLINE
  8
2
  6
CONTINUOUS
 62
     3
 66
     1
 10
0.0
 20
0.0
 30
0.0
  0
VERTEX
  8
2
  6
CONTINUOUS
 62
     3
 10
-108.757997998724
 20
5.041748895496131
 30
0.0
  0
VERTEX
  8
2
  6
CONTINUOUS
 62
     3
 10
-108.757997998724
 20
5.480535102597129
 30
0.0
  0
VERTEX
  8
2
  6
CONTINUOUS
 62
     3
 10
-109.137997998724
 20
5.26114199794829
 30
0.0
  0
VERTEX
  8
2
  6
CONTINUOUS
 62
     3
 10
-108.757997998724
 20
5.041748895496131
 30
0.0
  0
SEQEND
  8
2
  6
CONTINUOUS
 62
     3
  0
POLYLINE
  8
2
  6
CONTINUOUS
 62
     3
 66
     1
 10
0.0
 20
0.0
 30
0.0
  0
VERTEX
  8
2
  6
CONTINUOUS
 62
     3
 10
-108.7579979985113
 20
5.841748895496131
 30
0.0
  0
VERTEX
  8
2
  6
CONTINUOUS
 62
     3
 10
-108.7579979985113
 20
6.280535102597128
 30
0.0
  0
VERTEX
  8
2
  6
CONTINUOUS
 62
     3
 10
-109.1379979985113
 20
6.061141997948289
 30
0.0
  0
VERTEX
  8
2
  6
CONTINUOUS
 62
     3
 10
-108.7579979985113
 20
5.841748895496131
 30
0.0
  0
SEQEND
  8
2
  6
CONTINUOUS
 62
     3
  0
POLYLINE
  8
2
  6
CONTINUOUS
 62
     3
 66
     1
 10
0.0
 20
0.0
 30
0.0
  0
VERTEX
  8
2
  6
CONTINUOUS
 62
     3
 10
-108.7579979982987
 20
6.64174889549613
 30
0.0
  0
VERTEX
  8
2
  6
CONTINUOUS
 62
     3
 10
-108.7579979982987
 20
7.080535102597128
 30
0.0
  0
VERTEX
  8
2
  6
CONTINUOUS
 62
     3
 10
-109.1379979982987
 20
6.861141997948289
 30
0.0
  0
VERTEX
  8
2
  6
CONTINUOUS
 62
     3
 10
-108.7579979982987
 20
6.64174889549613
 30
0.0
  0
SEQEND
  8
2
  6
CONTINUOUS
 62
     3
  0
POLYLINE
  8
2
  6
CONTINUOUS
 62
     3
 66
     1
 10
0.0
 20
0.0
 30
0.0
  0
VERTEX
  8
2
  6
CONTINUOUS
 62
     3
 10
-108.757997998086
 20
7.44174889549613
 30
0.0
  0
VERTEX
  8
2
  6
CONTINUOUS
 62
     3
 10
-108.757997998086
 20
7.880535102597127
 30
0.0
  0
VERTEX
  8
2
  6
CONTINUOUS
 62
     3
 10
-109.137997998086
 20
7.661141997948289
 30
0.0
  0
VERTEX
  8
2
  6
CONTINUOUS
 62
     3
 10
-108.757997998086
 20
7.44174889549613
 30
0.0
  0
SEQEND
  8
2
  6
CONTINUOUS
 62
     3
  0
POLYLINE
  8
2
  6
CONTINUOUS
 62
     3
 66
     1
 10
0.0
 20
0.0
 30
0.0
  0
VERTEX
  8
2
  6
CONTINUOUS
 62
     3
 10
-108.7579979978733
 20
8.24174889549613
 30
0.0
  0
VERTEX
  8
2
  6
CONTINUOUS
 62
     3
 10
-108.7579979978733
 20
8.680535102597128
 30
0.0
  0
VERTEX
  8
2
  6
CONTINUOUS
 62
     3
 10
-109.1379979978733
 20
8.461141997948289
 30
0.0
  0
VERTEX
  8
2
  6
CONTINUOUS
 62
     3
 10
-108.7579979978733
 20
8.24174889549613
 30
0.0
  0
SEQEND
  8
2
  6
CONTINUOUS
 62
     3
  0
POLYLINE
  8
2
  6
CONTINUOUS
 62
     3
 66
     1
 10
0.0
 20
0.0
 30
0.0
  0
VERTEX
  8
2
  6
CONTINUOUS
 62
     3
 10
-108.7579979976607
 20
9.04174889549613
 30
0.0
  0
VERTEX
  8
2
  6
CONTINUOUS
 62
     3
 10
-108.7579979976607
 20
9.480535102597129
 30
0.0
  0
VERTEX
  8
2
  6
CONTINUOUS
 62
     3
 10
-109.1379979976607
 20
9.26114199794829
 30
0.0
  0
VERTEX
  8
2
  6
CONTINUOUS
 62
     3
 10
-108.7579979976607
 20
9.04174889549613
 30
0.0
  0
SEQEND
  8
2
  6
CONTINUOUS
 62
     3
  0
POLYLINE
  8
2
  6
CONTINUOUS
 62
     3
 66
     1
 10
0.0
 20
0.0
 30
0.0
  0
VERTEX
  8
2
  6
CONTINUOUS
 62
     3
 10
-108.757997997448
 20
9.841748895496131
 30
0.0
  0
VERTEX
  8
2
  6
CONTINUOUS
 62
     3
 10
-108.757997997448
 20
10.28053510259713
 30
0.0
  0
VERTEX
  8
2
  6
CONTINUOUS
 62
     3
 10
-109.137997997448
 20
10.06114199794829
 30
0.0
  0
VERTEX
  8
2
  6
CONTINUOUS
 62
     3
 10
-108.757997997448
 20
9.841748895496131
 30
0.0
  0
SEQEND
  8
2
  6
CONTINUOUS
 62
     3
  0
POLYLINE
  8
2
  6
CONTINUOUS
 62
     3
 66
     1
 10
0.0
 20
0.0
 30
0.0
  0
VERTEX
  8
2
  6
CONTINUOUS
 62
     3
 10
-108.7579979972353
 20
10.64174889549613
 30
0.0
  0
VERTEX
  8
2
  6
CONTINUOUS
 62
     3
 10
-108.7579979972353
 20
11.08053510259713
 30
0.0
  0
VERTEX
  8
2
  6
CONTINUOUS
 62
     3
 10
-109.1379979972353
 20
10.86114199794829
 30
0.0
  0
VERTEX
  8
2
  6
CONTINUOUS
 62
     3
 10
-108.7579979972353
 20
10.64174889549613
 30
0.0
  0
SEQEND
  8
2
  6
CONTINUOUS
 62
     3
  0
POLYLINE
  8
2
  6
CONTINUOUS
 62
     3
 66
     1
 10
0.0
 20
0.0
 30
0.0
  0
VERTEX
  8
2
  6
CONTINUOUS
 62
     3
 10
-108.7579979970227
 20
11.44174889549613
 30
0.0
  0
VERTEX
  8
2
  6
CONTINUOUS
 62
     3
 10
-108.7579979970227
 20
11.88053510259713
 30
0.0
  0
VERTEX
  8
2
  6
CONTINUOUS
 62
     3
 10
-109.1379979970227
 20
11.66114199794829
 30
0.0
  0
VERTEX
  8
2
  6
CONTINUOUS
 62
     3
 10
-108.7579979970227
 20
11.44174889549613
 30
0.0
  0
SEQEND
  8
2
  6
CONTINUOUS
 62
     3
  0
POLYLINE
  8
2
  6
CONTINUOUS
 62
     3
 66
     1
 10
0.0
 20
0.0
 30
0.0
  0
VERTEX
  8
2
  6
CONTINUOUS
 62
     3
 10
-108.75799799681
 20
12.24174889549613
 30
0.0
  0
VERTEX
  8
2
  6
CONTINUOUS
 62
     3
 10
-108.75799799681
 20
12.68053510259713
 30
0.0
  0
VERTEX
  8
2
  6
CONTINUOUS
 62
     3
 10
-109.13799799681
 20
12.46114199794829
 30
0.0
  0
VERTEX
  8
2
  6
CONTINUOUS
 62
     3
 10
-108.75799799681
 20
12.24174889549613
 30
0.0
  0
SEQEND
  8
2
  6
CONTINUOUS
 62
     3
  0
POLYLINE
  8
2
  6
CONTINUOUS
 62
     3
 66
     1
 10
0.0
 20
0.0
 30
0.0
  0
VERTEX
  8
2
  6
CONTINUOUS
 62
     3
 10
-108.7579979997873
 20
13.04174889363348
 30
0.0
  0
VERTEX
  8
2
  6
CONTINUOUS
 62
     3
 10
-108.7579979997873
 20
13.48053510073448
 30
0.0
  0
VERTEX
  8
2
  6
CONTINUOUS
 62
     3
 10
-109.1379979997873
 20
13.26114199608564
 30
0.0
  0
VERTEX
  8
2
  6
CONTINUOUS
 62
     3
 10
-108.7579979997873
 20
13.04174889363348
 30
0.0
  0
SEQEND
  8
2
  6
CONTINUOUS
 62
     3
  0
POLYLINE
  8
2
  6
CONTINUOUS
 62
     3
 66
     1
 10
0.0
 20
0.0
 30
0.0
  0
VERTEX
  8
2
  6
CONTINUOUS
 62
     3
 10
-108.7579980027646
 20
13.84174889177084
 30
0.0
  0
VERTEX
  8
2
  6
CONTINUOUS
 62
     3
 10
-108.7579980027646
 20
14.28053509887184
 30
0.0
  0
VERTEX
  8
2
  6
CONTINUOUS
 62
     3
 10
-109.1379980027646
 20
14.061141994223
 30
0.0
  0
VERTEX
  8
2
  6
CONTINUOUS
 62
     3
 10
-108.7579980027646
 20
13.84174889177084
 30
0.0
  0
SEQEND
  8
2
  6
CONTINUOUS
 62
     3
  0
POLYLINE
  8
2
  6
CONTINUOUS
 62
     3
 66
     1
 10
0.0
 20
0.0
 30
0.0
  0
VERTEX
  8
2
  6
CONTINUOUS
 62
     3
 10
-108.757998005742
 20
14.64174888990819
 30
0.0
  0
VERTEX
  8
2
  6
CONTINUOUS
 62
     3
 10
-108.757998005742
 20
15.08053509700919
 30
0.0
  0
VERTEX
  8
2
  6
CONTINUOUS
 62
     3
 10
-109.137998005742
 20
14.86114199236035
 30
0.0
  0
VERTEX
  8
2
  6
CONTINUOUS
 62
     3
 10
-108.757998005742
 20
14.64174888990819
 30
0.0
  0
SEQEND
  8
2
  6
CONTINUOUS
 62
     3
  0
POLYLINE
  8
2
  6
CONTINUOUS
 62
     3
 66
     1
 10
0.0
 20
0.0
 30
0.0
  0
VERTEX
  8
2
  6
CONTINUOUS
 62
     3
 10
-108.7579980087193
 20
15.44174888804555
 30
0.0
  0
VERTEX
  8
2
  6
CONTINUOUS
 62
     3
 10
-108.7579980087193
 20
15.88053509514654
 30
0.0
  0
VERTEX
  8
2
  6
CONTINUOUS
 62
     3
 10
-109.1379980087193
 20
15.6611419904977
 30
0.0
  0
VERTEX
  8
2
  6
CONTINUOUS
 62
     3
 10
-108.7579980087193
 20
15.44174888804555
 30
0.0
  0
SEQEND
  8
2
  6
CONTINUOUS
 62
     3
  0
POLYLINE
  8
2
  6
CONTINUOUS
 62
     3
 66
     1
 10
0.0
 20
0.0
 30
0.0
  0
VERTEX
  8
2
  6
CONTINUOUS
 62
     3
 10
-108.7579980116966
 20
16.2417488861829
 30
0.0
  0
VERTEX
  8
2
  6
CONTINUOUS
 62
     3
 10
-108.7579980116966
 20
16.6805350932839
 30
0.0
  0
VERTEX
  8
2
  6
CONTINUOUS
 62
     3
 10
-109.1379980116966
 20
16.46114198863506
 30
0.0
  0
VERTEX
  8
2
  6
CONTINUOUS
 62
     3
 10
-108.7579980116966
 20
16.2417488861829
 30
0.0
  0
SEQEND
  8
2
  6
CONTINUOUS
 62
     3
  0
POLYLINE
  8
2
  6
CONTINUOUS
 62
     3
 66
     1
 10
0.0
 20
0.0
 30
0.0
  0
VERTEX
  8
2
  6
CONTINUOUS
 62
     3
 10
-108.7579980146739
 20
17.04174888432025
 30
0.0
  0
VERTEX
  8
2
  6
CONTINUOUS
 62
     3
 10
-108.7579980146739
 20
17.48053509142125
 30
0.0
  0
VERTEX
  8
2
  6
CONTINUOUS
 62
     3
 10
-109.1379980146739
 20
17.26114198677241
 30
0.0
  0
VERTEX
  8
2
  6
CONTINUOUS
 62
     3
 10
-108.7579980146739
 20
17.04174888432025
 30
0.0
  0
SEQEND
  8
2
  6
CONTINUOUS
 62
     3
  0
POLYLINE
  8
2
  6
CONTINUOUS
 62
     3
 66
     1
 10
0.0
 20
0.0
 30
0.0
  0
VERTEX
  8
2
  6
CONTINUOUS
 62
     3
 10
-113.557998
 20
0.24174889549613
 30
0.0
  0
VERTEX
  8
2
  6
CONTINUOUS
 62
     3
 10
-113.557998
 20
0.6805351025971276
 30
0.0
  0
VERTEX
  8
2
  6
CONTINUOUS
 62
     3
 10
-113.177998
 20
0.4611419979482889
 30
0.0
  0
VERTEX
  8
2
  6
CONTINUOUS
 62
     3
 10
-113.557998
 20
0.24174889549613
 30
0.0
  0
SEQEND
  8
2
  6
CONTINUOUS
 62
     3
  0
POLYLINE
  8
2
  6
CONTINUOUS
 62
     3
 66
     1
 10
0.0
 20
0.0
 30
0.0
  0
VERTEX
  8
2
  6
CONTINUOUS
 62
     3
 10
-113.5579980002127
 20
1.04174889549613
 30
0.0
  0
VERTEX
  8
2
  6
CONTINUOUS
 62
     3
 10
-113.5579980002127
 20
1.480535102597128
 30
0.0
  0
VERTEX
  8
2
  6
CONTINUOUS
 62
     3
 10
-113.1779980002127
 20
1.261141997948289
 30
0.0
  0
VERTEX
  8
2
  6
CONTINUOUS
 62
     3
 10
-113.5579980002127
 20
1.04174889549613
 30
0.0
  0
SEQEND
  8
2
  6
CONTINUOUS
 62
     3
  0
POLYLINE
  8
2
  6
CONTINUOUS
 62
     3
 66
     1
 10
0.0
 20
0.0
 30
0.0
  0
VERTEX
  8
2
  6
CONTINUOUS
 62
     3
 10
-113.5579980004253
 20
1.84174889549613
 30
0.0
  0
VERTEX
  8
2
  6
CONTINUOUS
 62
     3
 10
-113.5579980004253
 20
2.280535102597128
 30
0.0
  0
VERTEX
  8
2
  6
CONTINUOUS
 62
     3
 10
-113.1779980004253
 20
2.061141997948289
 30
0.0
  0
VERTEX
  8
2
  6
CONTINUOUS
 62
     3
 10
-113.5579980004253
 20
1.84174889549613
 30
0.0
  0
SEQEND
  8
2
  6
CONTINUOUS
 62
     3
  0
POLYLINE
  8
2
  6
CONTINUOUS
 62
     3
 66
     1
 10
0.0
 20
0.0
 30
0.0
  0
VERTEX
  8
2
  6
CONTINUOUS
 62
     3
 10
-113.557998000638
 20
2.64174889549613
 30
0.0
  0
VERTEX
  8
2
  6
CONTINUOUS
 62
     3
 10
-113.557998000638
 20
3.080535102597128
 30
0.0
  0
VERTEX
  8
2
  6
CONTINUOUS
 62
     3
 10
-113.177998000638
 20
2.861141997948289
 30
0.0
  0
VERTEX
  8
2
  6
CONTINUOUS
 62
     3
 10
-113.557998000638
 20
2.64174889549613
 30
0.0
  0
SEQEND
  8
2
  6
CONTINUOUS
 62
     3
  0
POLYLINE
  8
2
  6
CONTINUOUS
 62
     3
 66
     1
 10
0.0
 20
0.0
 30
0.0
  0
VERTEX
  8
2
  6
CONTINUOUS
 62
     3
 10
-113.5579980008507
 20
3.44174889549613
 30
0.0
  0
VERTEX
  8
2
  6
CONTINUOUS
 62
     3
 10
-113.5579980008507
 20
3.880535102597128
 30
0.0
  0
VERTEX
  8
2
  6
CONTINUOUS
 62
     3
 10
-113.1779980008506
 20
3.661141997948289
 30
0.0
  0
VERTEX
  8
2
  6
CONTINUOUS
 62
     3
 10
-113.5579980008507
 20
3.44174889549613
 30
0.0
  0
SEQEND
  8
2
  6
CONTINUOUS
 62
     3
  0
POLYLINE
  8
2
  6
CONTINUOUS
 62
     3
 66
     1
 10
0.0
 20
0.0
 30
0.0
  0
VERTEX
  8
2
  6
CONTINUOUS
 62
     3
 10
-113.5579980010633
 20
4.24174889549613
 30
0.0
  0
VERTEX
  8
2
  6
CONTINUOUS
 62
     3
 10
-113.5579980010633
 20
4.680535102597128
 30
0.0
  0
VERTEX
  8
2
  6
CONTINUOUS
 62
     3
 10
-113.1779980010633
 20
4.461141997948289
 30
0.0
  0
VERTEX
  8
2
  6
CONTINUOUS
 62
     3
 10
-113.5579980010633
 20
4.24174889549613
 30
0.0
  0
SEQEND
  8
2
  6
CONTINUOUS
 62
     3
  0
POLYLINE
  8
2
  6
CONTINUOUS
 62
     3
 66
     1
 10
0.0
 20
0.0
 30
0.0
  0
VERTEX
  8
2
  6
CONTINUOUS
 62
     3
 10
-113.557998001276
 20
5.041748895496131
 30
0.0
  0
VERTEX
  8
2
  6
CONTINUOUS
 62
     3
 10
-113.557998001276
 20
5.480535102597129
 30
0.0
  0
VERTEX
  8
2
  6
CONTINUOUS
 62
     3
 10
-113.177998001276
 20
5.26114199794829
 30
0.0
  0
VERTEX
  8
2
  6
CONTINUOUS
 62
     3
 10
-113.557998001276
 20
5.041748895496131
 30
0.0
  0
SEQEND
  8
2
  6
CONTINUOUS
 62
     3
  0
POLYLINE
  8
2
  6
CONTINUOUS
 62
     3
 66
     1
 10
0.0
 20
0.0
 30
0.0
  0
VERTEX
  8
2
  6
CONTINUOUS
 62
     3
 10
-113.5579980014887
 20
5.841748895496131
 30
0.0
  0
VERTEX
  8
2
  6
CONTINUOUS
 62
     3
 10
-113.5579980014887
 20
6.280535102597128
 30
0.0
  0
VERTEX
  8
2
  6
CONTINUOUS
 62
     3
 10
-113.1779980014886
 20
6.061141997948289
 30
0.0
  0
VERTEX
  8
2
  6
CONTINUOUS
 62
     3
 10
-113.5579980014887
 20
5.841748895496131
 30
0.0
  0
SEQEND
  8
2
  6
CONTINUOUS
 62
     3
  0
POLYLINE
  8
2
  6
CONTINUOUS
 62
     3
 66
     1
 10
0.0
 20
0.0
 30
0.0
  0
VERTEX
  8
2
  6
CONTINUOUS
 62
     3
 10
-113.5579980017013
 20
6.64174889549613
 30
0.0
  0
VERTEX
  8
2
  6
CONTINUOUS
 62
     3
 10
-113.5579980017013
 20
7.080535102597128
 30
0.0
  0
VERTEX
  8
2
  6
CONTINUOUS
 62
     3
 10
-113.1779980017013
 20
6.861141997948289
 30
0.0
  0
VERTEX
  8
2
  6
CONTINUOUS
 62
     3
 10
-113.5579980017013
 20
6.64174889549613
 30
0.0
  0
SEQEND
  8
2
  6
CONTINUOUS
 62
     3
  0
POLYLINE
  8
2
  6
CONTINUOUS
 62
     3
 66
     1
 10
0.0
 20
0.0
 30
0.0
  0
VERTEX
  8
2
  6
CONTINUOUS
 62
     3
 10
-113.557998001914
 20
7.44174889549613
 30
0.0
  0
VERTEX
  8
2
  6
CONTINUOUS
 62
     3
 10
-113.557998001914
 20
7.880535102597127
 30
0.0
  0
VERTEX
  8
2
  6
CONTINUOUS
 62
     3
 10
-113.177998001914
 20
7.661141997948289
 30
0.0
  0
VERTEX
  8
2
  6
CONTINUOUS
 62
     3
 10
-113.557998001914
 20
7.44174889549613
 30
0.0
  0
SEQEND
  8
2
  6
CONTINUOUS
 62
     3
  0
POLYLINE
  8
2
  6
CONTINUOUS
 62
     3
 66
     1
 10
0.0
 20
0.0
 30
0.0
  0
VERTEX
  8
2
  6
CONTINUOUS
 62
     3
 10
-113.5579980021267
 20
8.24174889549613
 30
0.0
  0
VERTEX
  8
2
  6
CONTINUOUS
 62
     3
 10
-113.5579980021267
 20
8.680535102597128
 30
0.0
  0
VERTEX
  8
2
  6
CONTINUOUS
 62
     3
 10
-113.1779980021266
 20
8.461141997948289
 30
0.0
  0
VERTEX
  8
2
  6
CONTINUOUS
 62
     3
 10
-113.5579980021267
 20
8.24174889549613
 30
0.0
  0
SEQEND
  8
2
  6
CONTINUOUS
 62
     3
  0
POLYLINE
  8
2
  6
CONTINUOUS
 62
     3
 66
     1
 10
0.0
 20
0.0
 30
0.0
  0
VERTEX
  8
2
  6
CONTINUOUS
 62
     3
 10
-113.5579980023393
 20
9.04174889549613
 30
0.0
  0
VERTEX
  8
2
  6
CONTINUOUS
 62
     3
 10
-113.5579980023393
 20
9.480535102597129
 30
0.0
  0
VERTEX
  8
2
  6
CONTINUOUS
 62
     3
 10
-113.1779980023393
 20
9.26114199794829
 30
0.0
  0
VERTEX
  8
2
  6
CONTINUOUS
 62
     3
 10
-113.5579980023393
 20
9.04174889549613
 30
0.0
  0
SEQEND
  8
2
  6
CONTINUOUS
 62
     3
  0
POLYLINE
  8
2
  6
CONTINUOUS
 62
     3
 66
     1
 10
0.0
 20
0.0
 30
0.0
  0
VERTEX
  8
2
  6
CONTINUOUS
 62
     3
 10
-113.557998002552
 20
9.841748895496131
 30
0.0
  0
VERTEX
  8
2
  6
CONTINUOUS
 62
     3
 10
-113.557998002552
 20
10.28053510259713
 30
0.0
  0
VERTEX
  8
2
  6
CONTINUOUS
 62
     3
 10
-113.177998002552
 20
10.06114199794829
 30
0.0
  0
VERTEX
  8
2
  6
CONTINUOUS
 62
     3
 10
-113.557998002552
 20
9.841748895496131
 30
0.0
  0
SEQEND
  8
2
  6
CONTINUOUS
 62
     3
  0
POLYLINE
  8
2
  6
CONTINUOUS
 62
     3
 66
     1
 10
0.0
 20
0.0
 30
0.0
  0
VERTEX
  8
2
  6
CONTINUOUS
 62
     3
 10
-113.5579980027646
 20
10.64174889549613
 30
0.0
  0
VERTEX
  8
2
  6
CONTINUOUS
 62
     3
 10
-113.5579980027646
 20
11.08053510259713
 30
0.0
  0
VERTEX
  8
2
  6
CONTINUOUS
 62
     3
 10
-113.1779980027646
 20
10.86114199794829
 30
0.0
  0
VERTEX
  8
2
  6
CONTINUOUS
 62
     3
 10
-113.5579980027646
 20
10.64174889549613
 30
0.0
  0
SEQEND
  8
2
  6
CONTINUOUS
 62
     3
  0
POLYLINE
  8
2
  6
CONTINUOUS
 62
     3
 66
     1
 10
0.0
 20
0.0
 30
0.0
  0
VERTEX
  8
2
  6
CONTINUOUS
 62
     3
 10
-113.5579980029773
 20
11.44174889549613
 30
0.0
  0
VERTEX
  8
2
  6
CONTINUOUS
 62
     3
 10
-113.5579980029773
 20
11.88053510259713
 30
0.0
  0
VERTEX
  8
2
  6
CONTINUOUS
 62
     3
 10
-113.1779980029773
 20
11.66114199794829
 30
0.0
  0
VERTEX
  8
2
  6
CONTINUOUS
 62
     3
 10
-113.5579980029773
 20
11.44174889549613
 30
0.0
  0
SEQEND
  8
2
  6
CONTINUOUS
 62
     3
  0
POLYLINE
  8
2
  6
CONTINUOUS
 62
     3
 66
     1
 10
0.0
 20
0.0
 30
0.0
  0
VERTEX
  8
2
  6
CONTINUOUS
 62
     3
 10
-113.55799800319
 20
12.24174889549613
 30
0.0
  0
VERTEX
  8
2
  6
CONTINUOUS
 62
     3
 10
-113.55799800319
 20
12.68053510259713
 30
0.0
  0
VERTEX
  8
2
  6
CONTINUOUS
 62
     3
 10
-113.17799800319
 20
12.46114199794829
 30
0.0
  0
VERTEX
  8
2
  6
CONTINUOUS
 62
     3
 10
-113.55799800319
 20
12.24174889549613
 30
0.0
  0
SEQEND
  8
2
  6
CONTINUOUS
 62
     3
  0
POLYLINE
  8
2
  6
CONTINUOUS
 62
     3
 66
     1
 10
0.0
 20
0.0
 30
0.0
  0
VERTEX
  8
2
  6
CONTINUOUS
 62
     3
 10
-113.5579980002127
 20
13.04174889363348
 30
0.0
  0
VERTEX
  8
2
  6
CONTINUOUS
 62
     3
 10
-113.5579980002127
 20
13.48053510073448
 30
0.0
  0
VERTEX
  8
2
  6
CONTINUOUS
 62
     3
 10
-113.1779980002127
 20
13.26114199608564
 30
0.0
  0
VERTEX
  8
2
  6
CONTINUOUS
 62
     3
 10
-113.5579980002127
 20
13.04174889363348
 30
0.0
  0
SEQEND
  8
2
  6
CONTINUOUS
 62
     3
  0
POLYLINE
  8
2
  6
CONTINUOUS
 62
     3
 66
     1
 10
0.0
 20
0.0
 30
0.0
  0
VERTEX
  8
2
  6
CONTINUOUS
 62
     3
 10
-113.5579979972353
 20
13.84174889177084
 30
0.0
  0
VERTEX
  8
2
  6
CONTINUOUS
 62
     3
 10
-113.5579979972353
 20
14.28053509887184
 30
0.0
  0
VERTEX
  8
2
  6
CONTINUOUS
 62
     3
 10
-113.1779979972353
 20
14.061141994223
 30
0.0
  0
VERTEX
  8
2
  6
CONTINUOUS
 62
     3
 10
-113.5579979972353
 20
13.84174889177084
 30
0.0
  0
SEQEND
  8
2
  6
CONTINUOUS
 62
     3
  0
POLYLINE
  8
2
  6
CONTINUOUS
 62
     3
 66
     1
 10
0.0
 20
0.0
 30
0.0
  0
VERTEX
  8
2
  6
CONTINUOUS
 62
     3
 10
-113.557997994258
 20
14.64174888990819
 30
0.0
  0
VERTEX
  8
2
  6
CONTINUOUS
 62
     3
 10
-113.557997994258
 20
15.08053509700919
 30
0.0
  0
VERTEX
  8
2
  6
CONTINUOUS
 62
     3
 10
-113.177997994258
 20
14.86114199236035
 30
0.0
  0
VERTEX
  8
2
  6
CONTINUOUS
 62
     3
 10
-113.557997994258
 20
14.64174888990819
 30
0.0
  0
SEQEND
  8
2
  6
CONTINUOUS
 62
     3
  0
POLYLINE
  8
2
  6
CONTINUOUS
 62
     3
 66
     1
 10
0.0
 20
0.0
 30
0.0
  0
VERTEX
  8
2
  6
CONTINUOUS
 62
     3
 10
-113.5579979912807
 20
15.44174888804555
 30
0.0
  0
VERTEX
  8
2
  6
CONTINUOUS
 62
     3
 10
-113.5579979912807
 20
15.88053509514654
 30
0.0
  0
VERTEX
  8
2
  6
CONTINUOUS
 62
     3
 10
-113.1779979912807
 20
15.6611419904977
 30
0.0
  0
VERTEX
  8
2
  6
CONTINUOUS
 62
     3
 10
-113.5579979912807
 20
15.44174888804555
 30
0.0
  0
SEQEND
  8
2
  6
CONTINUOUS
 62
     3
  0
POLYLINE
  8
2
  6
CONTINUOUS
 62
     3
 66
     1
 10
0.0
 20
0.0
 30
0.0
  0
VERTEX
  8
2
  6
CONTINUOUS
 62
     3
 10
-113.5579979883034
 20
16.2417488861829
 30
0.0
  0
VERTEX
  8
2
  6
CONTINUOUS
 62
     3
 10
-113.5579979883034
 20
16.6805350932839
 30
0.0
  0
VERTEX
  8
2
  6
CONTINUOUS
 62
     3
 10
-113.1779979883034
 20
16.46114198863506
 30
0.0
  0
VERTEX
  8
2
  6
CONTINUOUS
 62
     3
 10
-113.5579979883034
 20
16.2417488861829
 30
0.0
  0
SEQEND
  8
2
  6
CONTINUOUS
 62
     3
  0
POLYLINE
  8
2
  6
CONTINUOUS
 62
     3
 66
     1
 10
0.0
 20
0.0
 30
0.0
  0
VERTEX
  8
2
  6
CONTINUOUS
 62
     3
 10
-113.5579979853261
 20
17.04174888432025
 30
0.0
  0
VERTEX
  8
2
  6
CONTINUOUS
 62
     3
 10
-113.5579979853261
 20
17.48053509142125
 30
0.0
  0
VERTEX
  8
2
  6
CONTINUOUS
 62
     3
 10
-113.1779979853261
 20
17.26114198677241
 30
0.0
  0
VERTEX
  8
2
  6
CONTINUOUS
 62
     3
 10
-113.5579979853261
 20
17.04174888432025
 30
0.0
  0
SEQEND
  8
2
  6
CONTINUOUS
 62
     3
  0
LINE
  8
2
  6
BORDER
 62
     4
 10
-130.213724
 20
19.44885200003285
 30
0.0
 11
-130.213724
 21
-4.284933999967127
 31
0.0
  0
POLYLINE
  8
2
  6
CONTINUOUS
 62
     3
 66
     1
 10
0.0
 20
0.0
 30
0.0
  0
VERTEX
  8
2
  6
CONTINUOUS
 62
     3
 10
-128.313724
 20
0.3713739108360455
 30
0.0
  0
VERTEX
  8
2
  6
CONTINUOUS
 62
     3
 10
-128.313724
 20
0.7408780842825183
 30
0.0
  0
VERTEX
  8
2
  6
CONTINUOUS
 62
     3
 10
-128.6337239991735
 20
0.5561259966343641
 30
0.0
  0
VERTEX
  8
2
  6
CONTINUOUS
 62
     3
 10
-128.313724
 20
0.3713739108360455
 30
0.0
  0
SEQEND
  8
2
  6
CONTINUOUS
 62
     3
  0
POLYLINE
  8
2
  6
CONTINUOUS
 62
     3
 66
     1
 10
0.0
 20
0.0
 30
0.0
  0
VERTEX
  8
2
  6
CONTINUOUS
 62
     3
 10
-128.313724
 20
-22.46968608610279
 30
0.0
  0
VERTEX
  8
2
  6
CONTINUOUS
 62
     3
 10
-128.313724
 20
-22.10018191265632
 30
0.0
  0
VERTEX
  8
2
  6
CONTINUOUS
 62
     3
 10
-128.6337239991735
 20
-22.28493400030447
 30
0.0
  0
VERTEX
  8
2
  6
CONTINUOUS
 62
     3
 10
-128.313724
 20
-22.46968608610279
 30
0.0
  0
SEQEND
  8
2
  6
CONTINUOUS
 62
     3
  0
POLYLINE
  8
2
  6
CONTINUOUS
 62
     3
 66
     1
 10
0.0
 20
0.0
 30
0.0
  0
VERTEX
  8
2
  6
CONTINUOUS
 62
     3
 10
-128.313724
 20
1.071373911953633
 30
0.0
  0
VERTEX
  8
2
  6
CONTINUOUS
 62
     3
 10
-128.313724
 20
1.440878085400105
 30
0.0
  0
VERTEX
  8
2
  6
CONTINUOUS
 62
     3
 10
-128.6337239991735
 20
1.256125997751951
 30
0.0
  0
VERTEX
  8
2
  6
CONTINUOUS
 62
     3
 10
-128.313724
 20
1.071373911953633
 30
0.0
  0
SEQEND
  8
2
  6
CONTINUOUS
 62
     3
  0
POLYLINE
  8
2
  6
CONTINUOUS
 62
     3
 66
     1
 10
0.0
 20
0.0
 30
0.0
  0
VERTEX
  8
2
  6
CONTINUOUS
 62
     3
 10
-128.313724
 20
1.77137391307122
 30
0.0
  0
VERTEX
  8
2
  6
CONTINUOUS
 62
     3
 10
-128.313724
 20
2.140878086517692
 30
0.0
  0
VERTEX
  8
2
  6
CONTINUOUS
 62
     3
 10
-128.6337239991735
 20
1.956125998869538
 30
0.0
  0
VERTEX
  8
2
  6
CONTINUOUS
 62
     3
 10
-128.313724
 20
1.77137391307122
 30
0.0
  0
SEQEND
  8
2
  6
CONTINUOUS
 62
     3
  0
POLYLINE
  8
2
  6
CONTINUOUS
 62
     3
 66
     1
 10
0.0
 20
0.0
 30
0.0
  0
VERTEX
  8
2
  6
CONTINUOUS
 62
     3
 10
-128.313724
 20
2.471373914188807
 30
0.0
  0
VERTEX
  8
2
  6
CONTINUOUS
 62
     3
 10
-128.313724
 20
2.840878087635279
 30
0.0
  0
VERTEX
  8
2
  6
CONTINUOUS
 62
     3
 10
-128.6337239991735
 20
2.656125999987125
 30
0.0
  0
VERTEX
  8
2
  6
CONTINUOUS
 62
     3
 10
-128.313724
 20
2.471373914188807
 30
0.0
  0
SEQEND
  8
2
  6
CONTINUOUS
 62
     3
  0
POLYLINE
  8
2
  6
CONTINUOUS
 62
     3
 66
     1
 10
0.0
 20
0.0
 30
0.0
  0
VERTEX
  8
2
  6
CONTINUOUS
 62
     3
 10
-128.313724
 20
3.171373915306394
 30
0.0
  0
VERTEX
  8
2
  6
CONTINUOUS
 62
     3
 10
-128.313724
 20
3.540878088752867
 30
0.0
  0
VERTEX
  8
2
  6
CONTINUOUS
 62
     3
 10
-128.6337239991735
 20
3.356126001104712
 30
0.0
  0
VERTEX
  8
2
  6
CONTINUOUS
 62
     3
 10
-128.313724
 20
3.171373915306394
 30
0.0
  0
SEQEND
  8
2
  6
CONTINUOUS
 62
     3
  0
POLYLINE
  8
2
  6
CONTINUOUS
 62
     3
 66
     1
 10
0.0
 20
0.0
 30
0.0
  0
VERTEX
  8
2
  6
CONTINUOUS
 62
     3
 10
-128.313724
 20
3.871373916423981
 30
0.0
  0
VERTEX
  8
2
  6
CONTINUOUS
 62
     3
 10
-128.313724
 20
4.240878089870454
 30
0.0
  0
VERTEX
  8
2
  6
CONTINUOUS
 62
     3
 10
-128.6337239991735
 20
4.0561260022223
 30
0.0
  0
VERTEX
  8
2
  6
CONTINUOUS
 62
     3
 10
-128.313724
 20
3.871373916423981
 30
0.0
  0
SEQEND
  8
2
  6
CONTINUOUS
 62
     3
  0
POLYLINE
  8
2
  6
CONTINUOUS
 62
     3
 66
     1
 10
0.0
 20
0.0
 30
0.0
  0
VERTEX
  8
2
  6
CONTINUOUS
 62
     3
 10
-128.313724
 20
4.571373917541568
 30
0.0
  0
VERTEX
  8
2
  6
CONTINUOUS
 62
     3
 10
-128.313724
 20
4.940878090988041
 30
0.0
  0
VERTEX
  8
2
  6
CONTINUOUS
 62
     3
 10
-128.6337239991735
 20
4.756126003339887
 30
0.0
  0
VERTEX
  8
2
  6
CONTINUOUS
 62
     3
 10
-128.313724
 20
4.571373917541568
 30
0.0
  0
SEQEND
  8
2
  6
CONTINUOUS
 62
     3
  0
POLYLINE
  8
2
  6
CONTINUOUS
 62
     3
 66
     1
 10
0.0
 20
0.0
 30
0.0
  0
VERTEX
  8
2
  6
CONTINUOUS
 62
     3
 10
-128.313724
 20
5.271373918659155
 30
0.0
  0
VERTEX
  8
2
  6
CONTINUOUS
 62
     3
 10
-128.313724
 20
5.640878092105628
 30
0.0
  0
VERTEX
  8
2
  6
CONTINUOUS
 62
     3
 10
-128.6337239991735
 20
5.456126004457474
 30
0.0
  0
VERTEX
  8
2
  6
CONTINUOUS
 62
     3
 10
-128.313724
 20
5.271373918659155
 30
0.0
  0
SEQEND
  8
2
  6
CONTINUOUS
 62
     3
  0
POLYLINE
  8
2
  6
CONTINUOUS
 62
     3
 66
     1
 10
0.0
 20
0.0
 30
0.0
  0
VERTEX
  8
2
  6
CONTINUOUS
 62
     3
 10
-128.313724
 20
5.971373919776743
 30
0.0
  0
VERTEX
  8
2
  6
CONTINUOUS
 62
     3
 10
-128.313724
 20
6.340878093223215
 30
0.0
  0
VERTEX
  8
2
  6
CONTINUOUS
 62
     3
 10
-128.6337239991735
 20
6.156126005575061
 30
0.0
  0
VERTEX
  8
2
  6
CONTINUOUS
 62
     3
 10
-128.313724
 20
5.971373919776743
 30
0.0
  0
SEQEND
  8
2
  6
CONTINUOUS
 62
     3
  0
POLYLINE
  8
2
  6
CONTINUOUS
 62
     3
 66
     1
 10
0.0
 20
0.0
 30
0.0
  0
VERTEX
  8
2
  6
CONTINUOUS
 62
     3
 10
-128.313724
 20
6.67137392089433
 30
0.0
  0
VERTEX
  8
2
  6
CONTINUOUS
 62
     3
 10
-128.313724
 20
7.040878094340802
 30
0.0
  0
VERTEX
  8
2
  6
CONTINUOUS
 62
     3
 10
-128.6337239991735
 20
6.856126006692648
 30
0.0
  0
VERTEX
  8
2
  6
CONTINUOUS
 62
     3
 10
-128.313724
 20
6.67137392089433
 30
0.0
  0
SEQEND
  8
2
  6
CONTINUOUS
 62
     3
  0
POLYLINE
  8
2
  6
CONTINUOUS
 62
     3
 66
     1
 10
0.0
 20
0.0
 30
0.0
  0
VERTEX
  8
2
  6
CONTINUOUS
 62
     3
 10
-128.313724
 20
7.371373922011917
 30
0.0
  0
VERTEX
  8
2
  6
CONTINUOUS
 62
     3
 10
-128.313724
 20
7.740878095458389
 30
0.0
  0
VERTEX
  8
2
  6
CONTINUOUS
 62
     3
 10
-128.6337239991735
 20
7.556126007810235
 30
0.0
  0
VERTEX
  8
2
  6
CONTINUOUS
 62
     3
 10
-128.313724
 20
7.371373922011917
 30
0.0
  0
SEQEND
  8
2
  6
CONTINUOUS
 62
     3
  0
POLYLINE
  8
2
  6
CONTINUOUS
 62
     3
 66
     1
 10
0.0
 20
0.0
 30
0.0
  0
VERTEX
  8
2
  6
CONTINUOUS
 62
     3
 10
-128.313724
 20
8.071373923129503
 30
0.0
  0
VERTEX
  8
2
  6
CONTINUOUS
 62
     3
 10
-128.313724
 20
8.440878096575977
 30
0.0
  0
VERTEX
  8
2
  6
CONTINUOUS
 62
     3
 10
-128.6337239991735
 20
8.256126008927822
 30
0.0
  0
VERTEX
  8
2
  6
CONTINUOUS
 62
     3
 10
-128.313724
 20
8.071373923129503
 30
0.0
  0
SEQEND
  8
2
  6
CONTINUOUS
 62
     3
  0
POLYLINE
  8
2
  6
CONTINUOUS
 62
     3
 66
     1
 10
0.0
 20
0.0
 30
0.0
  0
VERTEX
  8
2
  6
CONTINUOUS
 62
     3
 10
-128.313724
 20
8.77137392424709
 30
0.0
  0
VERTEX
  8
2
  6
CONTINUOUS
 62
     3
 10
-128.313724
 20
9.140878097693564
 30
0.0
  0
VERTEX
  8
2
  6
CONTINUOUS
 62
     3
 10
-128.6337239991735
 20
8.95612601004541
 30
0.0
  0
VERTEX
  8
2
  6
CONTINUOUS
 62
     3
 10
-128.313724
 20
8.77137392424709
 30
0.0
  0
SEQEND
  8
2
  6
CONTINUOUS
 62
     3
  0
POLYLINE
  8
2
  6
CONTINUOUS
 62
     3
 66
     1
 10
0.0
 20
0.0
 30
0.0
  0
VERTEX
  8
2
  6
CONTINUOUS
 62
     3
 10
-128.313724
 20
9.471373925364677
 30
0.0
  0
VERTEX
  8
2
  6
CONTINUOUS
 62
     3
 10
-128.313724
 20
9.840878098811151
 30
0.0
  0
VERTEX
  8
2
  6
CONTINUOUS
 62
     3
 10
-128.6337239991735
 20
9.656126011162996
 30
0.0
  0
VERTEX
  8
2
  6
CONTINUOUS
 62
     3
 10
-128.313724
 20
9.471373925364677
 30
0.0
  0
SEQEND
  8
2
  6
CONTINUOUS
 62
     3
  0
POLYLINE
  8
2
  6
CONTINUOUS
 62
     3
 66
     1
 10
0.0
 20
0.0
 30
0.0
  0
VERTEX
  8
2
  6
CONTINUOUS
 62
     3
 10
-128.313724
 20
10.17137392648226
 30
0.0
  0
VERTEX
  8
2
  6
CONTINUOUS
 62
     3
 10
-128.313724
 20
10.54087809992874
 30
0.0
  0
VERTEX
  8
2
  6
CONTINUOUS
 62
     3
 10
-128.6337239991735
 20
10.35612601228058
 30
0.0
  0
VERTEX
  8
2
  6
CONTINUOUS
 62
     3
 10
-128.313724
 20
10.17137392648226
 30
0.0
  0
SEQEND
  8
2
  6
CONTINUOUS
 62
     3
  0
POLYLINE
  8
2
  6
CONTINUOUS
 62
     3
 66
     1
 10
0.0
 20
0.0
 30
0.0
  0
VERTEX
  8
2
  6
CONTINUOUS
 62
     3
 10
-128.313724
 20
10.87137392759985
 30
0.0
  0
VERTEX
  8
2
  6
CONTINUOUS
 62
     3
 10
-128.313724
 20
11.24087810104633
 30
0.0
  0
VERTEX
  8
2
  6
CONTINUOUS
 62
     3
 10
-128.6337239991735
 20
11.05612601339817
 30
0.0
  0
VERTEX
  8
2
  6
CONTINUOUS
 62
     3
 10
-128.313724
 20
10.87137392759985
 30
0.0
  0
SEQEND
  8
2
  6
CONTINUOUS
 62
     3
  0
POLYLINE
  8
2
  6
CONTINUOUS
 62
     3
 66
     1
 10
0.0
 20
0.0
 30
0.0
  0
VERTEX
  8
2
  6
CONTINUOUS
 62
     3
 10
-128.313724
 20
11.57137392871744
 30
0.0
  0
VERTEX
  8
2
  6
CONTINUOUS
 62
     3
 10
-128.313724
 20
11.94087810216391
 30
0.0
  0
VERTEX
  8
2
  6
CONTINUOUS
 62
     3
 10
-128.6337239991735
 20
11.75612601451576
 30
0.0
  0
VERTEX
  8
2
  6
CONTINUOUS
 62
     3
 10
-128.313724
 20
11.57137392871744
 30
0.0
  0
SEQEND
  8
2
  6
CONTINUOUS
 62
     3
  0
POLYLINE
  8
2
  6
CONTINUOUS
 62
     3
 66
     1
 10
0.0
 20
0.0
 30
0.0
  0
VERTEX
  8
2
  6
CONTINUOUS
 62
     3
 10
-128.313724
 20
12.27137392983503
 30
0.0
  0
VERTEX
  8
2
  6
CONTINUOUS
 62
     3
 10
-128.313724
 20
12.6408781032815
 30
0.0
  0
VERTEX
  8
2
  6
CONTINUOUS
 62
     3
 10
-128.6337239991735
 20
12.45612601563334
 30
0.0
  0
VERTEX
  8
2
  6
CONTINUOUS
 62
     3
 10
-128.313724
 20
12.27137392983503
 30
0.0
  0
SEQEND
  8
2
  6
CONTINUOUS
 62
     3
  0
POLYLINE
  8
2
  6
CONTINUOUS
 62
     3
 66
     1
 10
0.0
 20
0.0
 30
0.0
  0
VERTEX
  8
2
  6
CONTINUOUS
 62
     3
 10
-128.313724
 20
12.97137393095261
 30
0.0
  0
VERTEX
  8
2
  6
CONTINUOUS
 62
     3
 10
-128.313724
 20
13.34087810439909
 30
0.0
  0
VERTEX
  8
2
  6
CONTINUOUS
 62
     3
 10
-128.6337239991735
 20
13.15612601675093
 30
0.0
  0
VERTEX
  8
2
  6
CONTINUOUS
 62
     3
 10
-128.313724
 20
12.97137393095261
 30
0.0
  0
SEQEND
  8
2
  6
CONTINUOUS
 62
     3
  0
POLYLINE
  8
2
  6
CONTINUOUS
 62
     3
 66
     1
 10
0.0
 20
0.0
 30
0.0
  0
VERTEX
  8
2
  6
CONTINUOUS
 62
     3
 10
-128.313724
 20
13.6713739320702
 30
0.0
  0
VERTEX
  8
2
  6
CONTINUOUS
 62
     3
 10
-128.313724
 20
14.04087810551667
 30
0.0
  0
VERTEX
  8
2
  6
CONTINUOUS
 62
     3
 10
-128.6337239991735
 20
13.85612601786852
 30
0.0
  0
VERTEX
  8
2
  6
CONTINUOUS
 62
     3
 10
-128.313724
 20
13.6713739320702
 30
0.0
  0
SEQEND
  8
2
  6
CONTINUOUS
 62
     3
  0
POLYLINE
  8
2
  6
CONTINUOUS
 62
     3
 66
     1
 10
0.0
 20
0.0
 30
0.0
  0
VERTEX
  8
2
  6
CONTINUOUS
 62
     3
 10
-128.313724
 20
14.37137393318779
 30
0.0
  0
VERTEX
  8
2
  6
CONTINUOUS
 62
     3
 10
-128.313724
 20
14.74087810663426
 30
0.0
  0
VERTEX
  8
2
  6
CONTINUOUS
 62
     3
 10
-128.6337239991735
 20
14.55612601898611
 30
0.0
  0
VERTEX
  8
2
  6
CONTINUOUS
 62
     3
 10
-128.313724
 20
14.37137393318779
 30
0.0
  0
SEQEND
  8
2
  6
CONTINUOUS
 62
     3
  0
POLYLINE
  8
2
  6
CONTINUOUS
 62
     3
 66
     1
 10
0.0
 20
0.0
 30
0.0
  0
VERTEX
  8
2
  6
CONTINUOUS
 62
     3
 10
-128.313724
 20
15.07137393430537
 30
0.0
  0
VERTEX
  8
2
  6
CONTINUOUS
 62
     3
 10
-128.313724
 20
15.44087810775185
 30
0.0
  0
VERTEX
  8
2
  6
CONTINUOUS
 62
     3
 10
-128.6337239991735
 20
15.25612602010369
 30
0.0
  0
VERTEX
  8
2
  6
CONTINUOUS
 62
     3
 10
-128.313724
 20
15.07137393430537
 30
0.0
  0
SEQEND
  8
2
  6
CONTINUOUS
 62
     3
  0
POLYLINE
  8
2
  6
CONTINUOUS
 62
     3
 66
     1
 10
0.0
 20
0.0
 30
0.0
  0
VERTEX
  8
2
  6
CONTINUOUS
 62
     3
 10
-128.313724
 20
15.77137393542296
 30
0.0
  0
VERTEX
  8
2
  6
CONTINUOUS
 62
     3
 10
-128.313724
 20
16.14087810886944
 30
0.0
  0
VERTEX
  8
2
  6
CONTINUOUS
 62
     3
 10
-128.6337239991735
 20
15.95612602122128
 30
0.0
  0
VERTEX
  8
2
  6
CONTINUOUS
 62
     3
 10
-128.313724
 20
15.77137393542296
 30
0.0
  0
SEQEND
  8
2
  6
CONTINUOUS
 62
     3
  0
POLYLINE
  8
2
  6
CONTINUOUS
 62
     3
 66
     1
 10
0.0
 20
0.0
 30
0.0
  0
VERTEX
  8
2
  6
CONTINUOUS
 62
     3
 10
-128.313724
 20
16.47137393654055
 30
0.0
  0
VERTEX
  8
2
  6
CONTINUOUS
 62
     3
 10
-128.313724
 20
16.84087810998702
 30
0.0
  0
VERTEX
  8
2
  6
CONTINUOUS
 62
     3
 10
-128.6337239991735
 20
16.65612602233887
 30
0.0
  0
VERTEX
  8
2
  6
CONTINUOUS
 62
     3
 10
-128.313724
 20
16.47137393654055
 30
0.0
  0
SEQEND
  8
2
  6
CONTINUOUS
 62
     3
  0
POLYLINE
  8
2
  6
CONTINUOUS
 62
     3
 66
     1
 10
0.0
 20
0.0
 30
0.0
  0
VERTEX
  8
2
  6
CONTINUOUS
 62
     3
 10
-128.313724
 20
17.17137393765814
 30
0.0
  0
VERTEX
  8
2
  6
CONTINUOUS
 62
     3
 10
-128.313724
 20
17.54087811110461
 30
0.0
  0
VERTEX
  8
2
  6
CONTINUOUS
 62
     3
 10
-128.6337239991735
 20
17.35612602345645
 30
0.0
  0
VERTEX
  8
2
  6
CONTINUOUS
 62
     3
 10
-128.313724
 20
17.17137393765814
 30
0.0
  0
SEQEND
  8
2
  6
CONTINUOUS
 62
     3
  0
POLYLINE
  8
2
  6
CONTINUOUS
 62
     3
 66
     1
 10
0.0
 20
0.0
 30
0.0
  0
VERTEX
  8
2
  6
CONTINUOUS
 62
     3
 10
-132.113724
 20
0.3713739108360455
 30
0.0
  0
VERTEX
  8
2
  6
CONTINUOUS
 62
     3
 10
-132.113724
 20
0.7408780842825183
 30
0.0
  0
VERTEX
  8
2
  6
CONTINUOUS
 62
     3
 10
-131.7937240008265
 20
0.5561259966343641
 30
0.0
  0
VERTEX
  8
2
  6
CONTINUOUS
 62
     3
 10
-132.113724
 20
0.3713739108360455
 30
0.0
  0
SEQEND
  8
2
  6
CONTINUOUS
 62
     3
  0
POLYLINE
  8
2
  6
CONTINUOUS
 62
     3
 66
     1
 10
0.0
 20
0.0
 30
0.0
  0
VERTEX
  8
2
  6
CONTINUOUS
 62
     3
 10
-132.113724
 20
1.071373911953633
 30
0.0
  0
VERTEX
  8
2
  6
CONTINUOUS
 62
     3
 10
-132.113724
 20
1.440878085400105
 30
0.0
  0
VERTEX
  8
2
  6
CONTINUOUS
 62
     3
 10
-131.7937240008265
 20
1.256125997751951
 30
0.0
  0
VERTEX
  8
2
  6
CONTINUOUS
 62
     3
 10
-132.113724
 20
1.071373911953633
 30
0.0
  0
SEQEND
  8
2
  6
CONTINUOUS
 62
     3
  0
POLYLINE
  8
2
  6
CONTINUOUS
 62
     3
 66
     1
 10
0.0
 20
0.0
 30
0.0
  0
VERTEX
  8
2
  6
CONTINUOUS
 62
     3
 10
-132.113724
 20
1.77137391307122
 30
0.0
  0
VERTEX
  8
2
  6
CONTINUOUS
 62
     3
 10
-132.113724
 20
2.140878086517692
 30
0.0
  0
VERTEX
  8
2
  6
CONTINUOUS
 62
     3
 10
-131.7937240008265
 20
1.956125998869538
 30
0.0
  0
VERTEX
  8
2
  6
CONTINUOUS
 62
     3
 10
-132.113724
 20
1.77137391307122
 30
0.0
  0
SEQEND
  8
2
  6
CONTINUOUS
 62
     3
  0
POLYLINE
  8
2
  6
CONTINUOUS
 62
     3
 66
     1
 10
0.0
 20
0.0
 30
0.0
  0
VERTEX
  8
2
  6
CONTINUOUS
 62
     3
 10
-132.113724
 20
2.471373914188807
 30
0.0
  0
VERTEX
  8
2
  6
CONTINUOUS
 62
     3
 10
-132.113724
 20
2.840878087635279
 30
0.0
  0
VERTEX
  8
2
  6
CONTINUOUS
 62
     3
 10
-131.7937240008265
 20
2.656125999987125
 30
0.0
  0
VERTEX
  8
2
  6
CONTINUOUS
 62
     3
 10
-132.113724
 20
2.471373914188807
 30
0.0
  0
SEQEND
  8
2
  6
CONTINUOUS
 62
     3
  0
POLYLINE
  8
2
  6
CONTINUOUS
 62
     3
 66
     1
 10
0.0
 20
0.0
 30
0.0
  0
VERTEX
  8
2
  6
CONTINUOUS
 62
     3
 10
-132.113724
 20
3.171373915306394
 30
0.0
  0
VERTEX
  8
2
  6
CONTINUOUS
 62
     3
 10
-132.113724
 20
3.540878088752867
 30
0.0
  0
VERTEX
  8
2
  6
CONTINUOUS
 62
     3
 10
-131.7937240008265
 20
3.356126001104712
 30
0.0
  0
VERTEX
  8
2
  6
CONTINUOUS
 62
     3
 10
-132.113724
 20
3.171373915306394
 30
0.0
  0
SEQEND
  8
2
  6
CONTINUOUS
 62
     3
  0
POLYLINE
  8
2
  6
CONTINUOUS
 62
     3
 66
     1
 10
0.0
 20
0.0
 30
0.0
  0
VERTEX
  8
2
  6
CONTINUOUS
 62
     3
 10
-132.113724
 20
3.871373916423981
 30
0.0
  0
VERTEX
  8
2
  6
CONTINUOUS
 62
     3
 10
-132.113724
 20
4.240878089870454
 30
0.0
  0
VERTEX
  8
2
  6
CONTINUOUS
 62
     3
 10
-131.7937240008265
 20
4.0561260022223
 30
0.0
  0
VERTEX
  8
2
  6
CONTINUOUS
 62
     3
 10
-132.113724
 20
3.871373916423981
 30
0.0
  0
SEQEND
  8
2
  6
CONTINUOUS
 62
     3
  0
POLYLINE
  8
2
  6
CONTINUOUS
 62
     3
 66
     1
 10
0.0
 20
0.0
 30
0.0
  0
VERTEX
  8
2
  6
CONTINUOUS
 62
     3
 10
-132.113724
 20
4.571373917541568
 30
0.0
  0
VERTEX
  8
2
  6
CONTINUOUS
 62
     3
 10
-132.113724
 20
4.940878090988041
 30
0.0
  0
VERTEX
  8
2
  6
CONTINUOUS
 62
     3
 10
-131.7937240008265
 20
4.756126003339887
 30
0.0
  0
VERTEX
  8
2
  6
CONTINUOUS
 62
     3
 10
-132.113724
 20
4.571373917541568
 30
0.0
  0
SEQEND
  8
2
  6
CONTINUOUS
 62
     3
  0
POLYLINE
  8
2
  6
CONTINUOUS
 62
     3
 66
     1
 10
0.0
 20
0.0
 30
0.0
  0
VERTEX
  8
2
  6
CONTINUOUS
 62
     3
 10
-132.113724
 20
5.271373918659155
 30
0.0
  0
VERTEX
  8
2
  6
CONTINUOUS
 62
     3
 10
-132.113724
 20
5.640878092105628
 30
0.0
  0
VERTEX
  8
2
  6
CONTINUOUS
 62
     3
 10
-131.7937240008265
 20
5.456126004457474
 30
0.0
  0
VERTEX
  8
2
  6
CONTINUOUS
 62
     3
 10
-132.113724
 20
5.271373918659155
 30
0.0
  0
SEQEND
  8
2
  6
CONTINUOUS
 62
     3
  0
POLYLINE
  8
2
  6
CONTINUOUS
 62
     3
 66
     1
 10
0.0
 20
0.0
 30
0.0
  0
VERTEX
  8
2
  6
CONTINUOUS
 62
     3
 10
-132.113724
 20
5.971373919776743
 30
0.0
  0
VERTEX
  8
2
  6
CONTINUOUS
 62
     3
 10
-132.113724
 20
6.340878093223215
 30
0.0
  0
VERTEX
  8
2
  6
CONTINUOUS
 62
     3
 10
-131.7937240008265
 20
6.156126005575061
 30
0.0
  0
VERTEX
  8
2
  6
CONTINUOUS
 62
     3
 10
-132.113724
 20
5.971373919776743
 30
0.0
  0
SEQEND
  8
2
  6
CONTINUOUS
 62
     3
  0
POLYLINE
  8
2
  6
CONTINUOUS
 62
     3
 66
     1
 10
0.0
 20
0.0
 30
0.0
  0
VERTEX
  8
2
  6
CONTINUOUS
 62
     3
 10
-132.113724
 20
6.67137392089433
 30
0.0
  0
VERTEX
  8
2
  6
CONTINUOUS
 62
     3
 10
-132.113724
 20
7.040878094340802
 30
0.0
  0
VERTEX
  8
2
  6
CONTINUOUS
 62
     3
 10
-131.7937240008265
 20
6.856126006692648
 30
0.0
  0
VERTEX
  8
2
  6
CONTINUOUS
 62
     3
 10
-132.113724
 20
6.67137392089433
 30
0.0
  0
SEQEND
  8
2
  6
CONTINUOUS
 62
     3
  0
POLYLINE
  8
2
  6
CONTINUOUS
 62
     3
 66
     1
 10
0.0
 20
0.0
 30
0.0
  0
VERTEX
  8
2
  6
CONTINUOUS
 62
     3
 10
-132.113724
 20
7.371373922011917
 30
0.0
  0
VERTEX
  8
2
  6
CONTINUOUS
 62
     3
 10
-132.113724
 20
7.740878095458389
 30
0.0
  0
VERTEX
  8
2
  6
CONTINUOUS
 62
     3
 10
-131.7937240008265
 20
7.556126007810235
 30
0.0
  0
VERTEX
  8
2
  6
CONTINUOUS
 62
     3
 10
-132.113724
 20
7.371373922011917
 30
0.0
  0
SEQEND
  8
2
  6
CONTINUOUS
 62
     3
  0
POLYLINE
  8
2
  6
CONTINUOUS
 62
     3
 66
     1
 10
0.0
 20
0.0
 30
0.0
  0
VERTEX
  8
2
  6
CONTINUOUS
 62
     3
 10
-132.113724
 20
8.071373923129503
 30
0.0
  0
VERTEX
  8
2
  6
CONTINUOUS
 62
     3
 10
-132.113724
 20
8.440878096575977
 30
0.0
  0
VERTEX
  8
2
  6
CONTINUOUS
 62
     3
 10
-131.7937240008265
 20
8.256126008927822
 30
0.0
  0
VERTEX
  8
2
  6
CONTINUOUS
 62
     3
 10
-132.113724
 20
8.071373923129503
 30
0.0
  0
SEQEND
  8
2
  6
CONTINUOUS
 62
     3
  0
POLYLINE
  8
2
  6
CONTINUOUS
 62
     3
 66
     1
 10
0.0
 20
0.0
 30
0.0
  0
VERTEX
  8
2
  6
CONTINUOUS
 62
     3
 10
-132.113724
 20
8.77137392424709
 30
0.0
  0
VERTEX
  8
2
  6
CONTINUOUS
 62
     3
 10
-132.113724
 20
9.140878097693564
 30
0.0
  0
VERTEX
  8
2
  6
CONTINUOUS
 62
     3
 10
-131.7937240008265
 20
8.95612601004541
 30
0.0
  0
VERTEX
  8
2
  6
CONTINUOUS
 62
     3
 10
-132.113724
 20
8.77137392424709
 30
0.0
  0
SEQEND
  8
2
  6
CONTINUOUS
 62
     3
  0
POLYLINE
  8
2
  6
CONTINUOUS
 62
     3
 66
     1
 10
0.0
 20
0.0
 30
0.0
  0
VERTEX
  8
2
  6
CONTINUOUS
 62
     3
 10
-132.113724
 20
9.471373925364677
 30
0.0
  0
VERTEX
  8
2
  6
CONTINUOUS
 62
     3
 10
-132.113724
 20
9.840878098811151
 30
0.0
  0
VERTEX
  8
2
  6
CONTINUOUS
 62
     3
 10
-131.7937240008265
 20
9.656126011162996
 30
0.0
  0
VERTEX
  8
2
  6
CONTINUOUS
 62
     3
 10
-132.113724
 20
9.471373925364677
 30
0.0
  0
SEQEND
  8
2
  6
CONTINUOUS
 62
     3
  0
POLYLINE
  8
2
  6
CONTINUOUS
 62
     3
 66
     1
 10
0.0
 20
0.0
 30
0.0
  0
VERTEX
  8
2
  6
CONTINUOUS
 62
     3
 10
-132.113724
 20
10.17137392648226
 30
0.0
  0
VERTEX
  8
2
  6
CONTINUOUS
 62
     3
 10
-132.113724
 20
10.54087809992874
 30
0.0
  0
VERTEX
  8
2
  6
CONTINUOUS
 62
     3
 10
-131.7937240008265
 20
10.35612601228058
 30
0.0
  0
VERTEX
  8
2
  6
CONTINUOUS
 62
     3
 10
-132.113724
 20
10.17137392648226
 30
0.0
  0
SEQEND
  8
2
  6
CONTINUOUS
 62
     3
  0
POLYLINE
  8
2
  6
CONTINUOUS
 62
     3
 66
     1
 10
0.0
 20
0.0
 30
0.0
  0
VERTEX
  8
2
  6
CONTINUOUS
 62
     3
 10
-132.113724
 20
10.87137392759985
 30
0.0
  0
VERTEX
  8
2
  6
CONTINUOUS
 62
     3
 10
-132.113724
 20
11.24087810104633
 30
0.0
  0
VERTEX
  8
2
  6
CONTINUOUS
 62
     3
 10
-131.7937240008265
 20
11.05612601339817
 30
0.0
  0
VERTEX
  8
2
  6
CONTINUOUS
 62
     3
 10
-132.113724
 20
10.87137392759985
 30
0.0
  0
SEQEND
  8
2
  6
CONTINUOUS
 62
     3
  0
POLYLINE
  8
2
  6
CONTINUOUS
 62
     3
 66
     1
 10
0.0
 20
0.0
 30
0.0
  0
VERTEX
  8
2
  6
CONTINUOUS
 62
     3
 10
-132.113724
 20
11.57137392871744
 30
0.0
  0
VERTEX
  8
2
  6
CONTINUOUS
 62
     3
 10
-132.113724
 20
11.94087810216391
 30
0.0
  0
VERTEX
  8
2
  6
CONTINUOUS
 62
     3
 10
-131.7937240008265
 20
11.75612601451576
 30
0.0
  0
VERTEX
  8
2
  6
CONTINUOUS
 62
     3
 10
-132.113724
 20
11.57137392871744
 30
0.0
  0
SEQEND
  8
2
  6
CONTINUOUS
 62
     3
  0
POLYLINE
  8
2
  6
CONTINUOUS
 62
     3
 66
     1
 10
0.0
 20
0.0
 30
0.0
  0
VERTEX
  8
2
  6
CONTINUOUS
 62
     3
 10
-132.113724
 20
12.27137392983503
 30
0.0
  0
VERTEX
  8
2
  6
CONTINUOUS
 62
     3
 10
-132.113724
 20
12.6408781032815
 30
0.0
  0
VERTEX
  8
2
  6
CONTINUOUS
 62
     3
 10
-131.7937240008265
 20
12.45612601563334
 30
0.0
  0
VERTEX
  8
2
  6
CONTINUOUS
 62
     3
 10
-132.113724
 20
12.27137392983503
 30
0.0
  0
SEQEND
  8
2
  6
CONTINUOUS
 62
     3
  0
POLYLINE
  8
2
  6
CONTINUOUS
 62
     3
 66
     1
 10
0.0
 20
0.0
 30
0.0
  0
VERTEX
  8
2
  6
CONTINUOUS
 62
     3
 10
-132.113724
 20
12.97137393095261
 30
0.0
  0
VERTEX
  8
2
  6
CONTINUOUS
 62
     3
 10
-132.113724
 20
13.34087810439909
 30
0.0
  0
VERTEX
  8
2
  6
CONTINUOUS
 62
     3
 10
-131.7937240008265
 20
13.15612601675093
 30
0.0
  0
VERTEX
  8
2
  6
CONTINUOUS
 62
     3
 10
-132.113724
 20
12.97137393095261
 30
0.0
  0
SEQEND
  8
2
  6
CONTINUOUS
 62
     3
  0
POLYLINE
  8
2
  6
CONTINUOUS
 62
     3
 66
     1
 10
0.0
 20
0.0
 30
0.0
  0
VERTEX
  8
2
  6
CONTINUOUS
 62
     3
 10
-132.113724
 20
13.6713739320702
 30
0.0
  0
VERTEX
  8
2
  6
CONTINUOUS
 62
     3
 10
-132.113724
 20
14.04087810551667
 30
0.0
  0
VERTEX
  8
2
  6
CONTINUOUS
 62
     3
 10
-131.7937240008265
 20
13.85612601786852
 30
0.0
  0
VERTEX
  8
2
  6
CONTINUOUS
 62
     3
 10
-132.113724
 20
13.6713739320702
 30
0.0
  0
SEQEND
  8
2
  6
CONTINUOUS
 62
     3
  0
POLYLINE
  8
2
  6
CONTINUOUS
 62
     3
 66
     1
 10
0.0
 20
0.0
 30
0.0
  0
VERTEX
  8
2
  6
CONTINUOUS
 62
     3
 10
-132.113724
 20
14.37137393318779
 30
0.0
  0
VERTEX
  8
2
  6
CONTINUOUS
 62
     3
 10
-132.113724
 20
14.74087810663426
 30
0.0
  0
VERTEX
  8
2
  6
CONTINUOUS
 62
     3
 10
-131.7937240008265
 20
14.55612601898611
 30
0.0
  0
VERTEX
  8
2
  6
CONTINUOUS
 62
     3
 10
-132.113724
 20
14.37137393318779
 30
0.0
  0
SEQEND
  8
2
  6
CONTINUOUS
 62
     3
  0
POLYLINE
  8
2
  6
CONTINUOUS
 62
     3
 66
     1
 10
0.0
 20
0.0
 30
0.0
  0
VERTEX
  8
2
  6
CONTINUOUS
 62
     3
 10
-132.113724
 20
15.07137393430537
 30
0.0
  0
VERTEX
  8
2
  6
CONTINUOUS
 62
     3
 10
-132.113724
 20
15.44087810775185
 30
0.0
  0
VERTEX
  8
2
  6
CONTINUOUS
 62
     3
 10
-131.7937240008265
 20
15.25612602010369
 30
0.0
  0
VERTEX
  8
2
  6
CONTINUOUS
 62
     3
 10
-132.113724
 20
15.07137393430537
 30
0.0
  0
SEQEND
  8
2
  6
CONTINUOUS
 62
     3
  0
POLYLINE
  8
2
  6
CONTINUOUS
 62
     3
 66
     1
 10
0.0
 20
0.0
 30
0.0
  0
VERTEX
  8
2
  6
CONTINUOUS
 62
     3
 10
-132.113724
 20
15.77137393542296
 30
0.0
  0
VERTEX
  8
2
  6
CONTINUOUS
 62
     3
 10
-132.113724
 20
16.14087810886944
 30
0.0
  0
VERTEX
  8
2
  6
CONTINUOUS
 62
     3
 10
-131.7937240008265
 20
15.95612602122128
 30
0.0
  0
VERTEX
  8
2
  6
CONTINUOUS
 62
     3
 10
-132.113724
 20
15.77137393542296
 30
0.0
  0
SEQEND
  8
2
  6
CONTINUOUS
 62
     3
  0
POLYLINE
  8
2
  6
CONTINUOUS
 62
     3
 66
     1
 10
0.0
 20
0.0
 30
0.0
  0
VERTEX
  8
2
  6
CONTINUOUS
 62
     3
 10
-132.113724
 20
16.47137393654055
 30
0.0
  0
VERTEX
  8
2
  6
CONTINUOUS
 62
     3
 10
-132.113724
 20
16.84087810998702
 30
0.0
  0
VERTEX
  8
2
  6
CONTINUOUS
 62
     3
 10
-131.7937240008265
 20
16.65612602233887
 30
0.0
  0
VERTEX
  8
2
  6
CONTINUOUS
 62
     3
 10
-132.113724
 20
16.47137393654055
 30
0.0
  0
SEQEND
  8
2
  6
CONTINUOUS
 62
     3
  0
POLYLINE
  8
2
  6
CONTINUOUS
 62
     3
 66
     1
 10
0.0
 20
0.0
 30
0.0
  0
VERTEX
  8
2
  6
CONTINUOUS
 62
     3
 10
-132.113724
 20
17.17137393765814
 30
0.0
  0
VERTEX
  8
2
  6
CONTINUOUS
 62
     3
 10
-132.113724
 20
17.54087811110461
 30
0.0
  0
VERTEX
  8
2
  6
CONTINUOUS
 62
     3
 10
-131.7937240008265
 20
17.35612602345645
 30
0.0
  0
VERTEX
  8
2
  6
CONTINUOUS
 62
     3
 10
-132.113724
 20
17.17137393765814
 30
0.0
  0
SEQEND
  8
2
  6
CONTINUOUS
 62
     3
  0
POLYLINE
  8
2
  6
CONTINUOUS
 62
     3
 66
     1
 10
0.0
 20
0.0
 30
0.0
  0
VERTEX
  8
2
  6
CONTINUOUS
 62
     3
 10
-108.757998
 20
-22.59931110144271
 30
0.0
  0
VERTEX
  8
2
  6
CONTINUOUS
 62
     3
 10
-108.757998
 20
-22.16052489434171
 30
0.0
  0
VERTEX
  8
2
  6
CONTINUOUS
 62
     3
 10
-109.137998
 20
-22.37991799899055
 30
0.0
  0
VERTEX
  8
2
  6
CONTINUOUS
 62
     3
 10
-108.757998
 20
-22.59931110144271
 30
0.0
  0
SEQEND
  8
2
  6
CONTINUOUS
 62
     3
  0
LINE
  8
2
  6
BORDER
 62
     4
 10
-23.74224200099707
 20
19.35386799999995
 30
0.0
 11
-23.74224200099707
 21
-4.379918000000032
 31
0.0
  0
LINE
  8
2
  6
BORDER
 62
     4
 10
6.135708999999999
 20
19.35386800024219
 30
0.0
 11
6.135708999999999
 21
-4.379917999757794
 31
0.0
  0
LINE
  8
2
  6
BORDER
 62
     4
 10
40.60895199887455
 20
19.35386800024219
 30
0.0
 11
40.60895199887455
 21
-4.379917999757794
 31
0.0
  0
LINE
  8
2
  6
BORDER
 62
     4
 10
-131.3449030011255
 20
-61.2080859997578
 30
0.0
 11
-131.3449030011255
 21
-84.94187199975778
 31
0.0
  0
POLYLINE
  8
2
  6
CONTINUOUS
 62
     3
 66
     1
 10
0.0
 20
0.0
 30
0.0
  0
VERTEX
  8
2
  6
CONTINUOUS
 62
     3
 10
-110.0544120101532
 20
89.66470467168762
 30
0.0
  0
VERTEX
  8
2
  6
CONTINUOUS
 62
     3
 10
-110.0544120101532
 20
95.4382073874246
 30
0.0
  0
VERTEX
  8
2
  6
CONTINUOUS
 62
     3
 10
-115.0544120101532
 20
92.55145601046621
 30
0.0
  0
VERTEX
  8
2
  6
CONTINUOUS
 62
     3
 10
-110.0544120101532
 20
89.66470467168762
 30
0.0
  0
SEQEND
  8
2
  6
CONTINUOUS
 62
     3
  0
LINE
  8
2
  6
BORDER
 62
     4
 10
-139.0544120101532
 20
117.4521959999999
 30
0.0
 11
-139.0544120101532
 21
64.14085600738935
 31
0.0
  0
POLYLINE
  8
2
  6
CONTINUOUS
 62
     2
 66
     1
 10
0.0
 20
0.0
 30
0.0
  0
VERTEX
  8
2
  6
CONTINUOUS
 62
     2
 10
-94.18704700101537
 20
1.615639999999956
 30
0.0
  0
VERTEX
  8
2
  6
CONTINUOUS
 62
     2
 10
-94.78704700101537
 20
1.865639999999956
 30
0.0
  0
VERTEX
  8
2
  6
CONTINUOUS
 62
     2
 10
-94.78704700101537
 20
1.365639999999956
 30
0.0
  0
VERTEX
  8
2
  6
CONTINUOUS
 62
     2
 10
-94.18704700101537
 20
1.615639999999956
 30
0.0
  0
SEQEND
  8
2
  6
CONTINUOUS
 62
     2
  0
LINE
  8
2
  6
CONTINUOUS
 62
     2
 10
-94.78704700101537
 20
1.615639999999956
 30
0.0
 11
-95.78704700101537
 21
1.615639999999957
 31
0.0
  0
POLYLINE
  8
2
  6
CONTINUOUS
 62
     2
 66
     1
 10
0.0
 20
0.0
 30
0.0
  0
VERTEX
  8
2
  6
CONTINUOUS
 62
     2
 10
-91.78704700101537
 20
1.615639999999956
 30
0.0
  0
VERTEX
  8
2
  6
CONTINUOUS
 62
     2
 10
-91.18704700101537
 20
1.365639999999956
 30
0.0
  0
VERTEX
  8
2
  6
CONTINUOUS
 62
     2
 10
-91.18704700101537
 20
1.865639999999956
 30
0.0
  0
VERTEX
  8
2
  6
CONTINUOUS
 62
     2
 10
-91.78704700101537
 20
1.615639999999956
 30
0.0
  0
SEQEND
  8
2
  6
CONTINUOUS
 62
     2
  0
LINE
  8
2
  6
CONTINUOUS
 62
     2
 10
-91.18704700101537
 20
1.615639999999956
 30
0.0
 11
-90.18704700101537
 21
1.615639999999956
 31
0.0
  0
LINE
  8
2
  6
CONTINUOUS
 62
     2
 10
-94.18704700101537
 20
1.615639999999956
 30
0.0
 11
-91.78704700101537
 21
1.615639999999956
 31
0.0
  0
POLYLINE
  8
2
  6
CONTINUOUS
 62
     2
 66
     1
 10
0.0
 20
0.0
 30
0.0
  0
VERTEX
  8
2
  6
CONTINUOUS
 62
     2
 10
-94.18704700101537
 20
0.7611420003076603
 30
0.0
  0
VERTEX
  8
2
  6
CONTINUOUS
 62
     2
 10
-94.18704700101537
 20
2.115639999999956
 30
0.0
  0
SEQEND
  8
2
  6
CONTINUOUS
 62
     2
  0
POLYLINE
  8
2
  6
CONTINUOUS
 62
     2
 66
     1
 10
0.0
 20
0.0
 30
0.0
  0
VERTEX
  8
2
  6
CONTINUOUS
 62
     2
 10
-91.78704700101537
 20
0.7611420003076603
 30
0.0
  0
VERTEX
  8
2
  6
CONTINUOUS
 62
     2
 10
-91.78704700101537
 20
2.115639999999956
 30
0.0
  0
SEQEND
  8
2
  6
CONTINUOUS
 62
     2
  0
TEXT
  8
2
  6
CONTINUOUS
 62
     7
 10
-93.86204700101537
 20
1.815639999999956
 30
0.0
 40
1.0
  1
2
 41
0.4999999999999999
  7
EXCESS_STANDARD
  0
TEXT
  8
2
  6
CONTINUOUS
 62
     7
 10
-93.36204700101537
 20
1.815639999999956
 30
0.0
 40
1.0
  1
.
 41
0.4999999999999999
  7
EXCESS_STANDARD
  0
TEXT
  8
2
  6
CONTINUOUS
 62
     7
 10
-93.11204700101537
 20
1.815639999999956
 30
0.0
 40
1.0
  1
4
 41
0.4999999999999999
  7
EXCESS_STANDARD
  0
TEXT
  8
2
  6
CONTINUOUS
 62
     7
 10
-92.61204700101537
 20
1.815639999999956
 30
0.0
 40
1.0
  1
0
 41
0.4999999999999999
  7
EXCESS_STANDARD
  0
POLYLINE
  8
3
  6
CONTINUOUS
 62
     7
 66
     1
 10
0.0
 20
0.0
 30
0.0
  0
VERTEX
  8
3
  6
CONTINUOUS
 62
     7
 10
-99.18704700101537
 20
-2.379918000000032
 30
0.0
  0
VERTEX
  8
3
  6
CONTINUOUS
 62
     7
 10
-89.18704700101537
 20
-2.379918000000032
 30
0.0
  0
VERTEX
  8
3
  6
CONTINUOUS
 62
     7
 10
-89.18704700101537
 20
-22.37991799923279
 30
0.0
  0
VERTEX
  8
3
  6
CONTINUOUS
 62
     7
 10
-99.18704700101537
 20
-22.37991799923279
 30
0.0
  0
VERTEX
  8
3
  6
CONTINUOUS
 62
     7
 10
-99.18704700101537
 20
-2.379918000000032
 30
0.0
  0
SEQEND
  8
3
  6
CONTINUOUS
 62
     7
  0
LINE
  8
3
  6
DOT
 62
     7
 10
-97.38704700101538
 20
-22.37991800106715
 30
0.0
 11
-97.38704700101538
 21
-2.379918001834398
 31
0.0
  0
LINE
  8
3
  6
DOT
 62
     7
 10
-90.98704700101537
 20
-2.379918001834398
 30
0.0
 11
-90.98704700101537
 21
-22.37991800106715
 31
0.0
  0
LINE
  8
3
  6
BORDER
 62
     4
 10
-94.18704700101537
 20
-0.3799179992327879
 30
0.0
 11
-94.18704700101537
 21
-24.37991799923279
 31
0.0
  0
POLYLINE
  8
3
  6
CONTINUOUS
 62
     7
 66
     1
 10
0.0
 20
0.0
 30
0.0
  0
VERTEX
  8
3
  6
CONTINUOUS
 62
     7
 10
-76.6092410004155
 20
-2.379918000000032
 30
0.0
  0
VERTEX
  8
3
  6
CONTINUOUS
 62
     7
 10
-66.6092410004155
 20
-2.379918000000032
 30
0.0
  0
VERTEX
  8
3
  6
CONTINUOUS
 62
     7
 10
-66.6092410004155
 20
-22.37991799923279
 30
0.0
  0
VERTEX
  8
3
  6
CONTINUOUS
 62
     7
 10
-76.6092410004155
 20
-22.37991799923279
 30
0.0
  0
VERTEX
  8
3
  6
CONTINUOUS
 62
     7
 10
-76.6092410004155
 20
-2.379918000000032
 30
0.0
  0
SEQEND
  8
3
  6
CONTINUOUS
 62
     7
  0
LINE
  8
3
  6
BORDER
 62
     4
 10
-71.6092410004155
 20
-0.3799179992327879
 30
0.0
 11
-71.6092410004155
 21
-24.37991799923279
 31
0.0
  0
LINE
  8
3
  6
BORDER
 62
     4
 10
-50.78308700055879
 20
-0.3799179992327879
 30
0.0
 11
-50.78308700055879
 21
-24.37991799923279
 31
0.0
  0
POLYLINE
  8
3
  6
CONTINUOUS
 62
     7
 66
     1
 10
0.0
 20
0.0
 30
0.0
  0
VERTEX
  8
3
  6
CONTINUOUS
 62
     7
 10
-116.157998
 20
-2.379917999757794
 30
0.0
  0
VERTEX
  8
3
  6
CONTINUOUS
 62
     7
 10
-106.157998
 20
-2.379917999757794
 30
0.0
  0
VERTEX
  8
3
  6
CONTINUOUS
 62
     7
 10
-106.157998
 20
-22.37991799899055
 30
0.0
  0
VERTEX
  8
3
  6
CONTINUOUS
 62
     7
 10
-116.157998
 20
-22.37991799899055
 30
0.0
  0
VERTEX
  8
3
  6
CONTINUOUS
 62
     7
 10
-116.157998
 20
-2.379917999757794
 30
0.0
  0
SEQEND
  8
3
  6
CONTINUOUS
 62
     7
  0
LINE
  8
3
  6
BORDER
 62
     4
 10
-111.157998
 20
-0.3799179989905497
 30
0.0
 11
-111.157998
 21
-24.37991799899055
 31
0.0
  0
POLYLINE
  8
3
  6
CONTINUOUS
 62
     7
 66
     1
 10
0.0
 20
0.0
 30
0.0
  0
VERTEX
  8
3
  6
CONTINUOUS
 62
     7
 10
-135.213724
 20
-2.284933999967127
 30
0.0
  0
VERTEX
  8
3
  6
CONTINUOUS
 62
     7
 10
-125.213724
 20
-2.284933999967127
 30
0.0
  0
VERTEX
  8
3
  6
CONTINUOUS
 62
     7
 10
-125.213724
 20
-22.28493399919988
 30
0.0
  0
VERTEX
  8
3
  6
CONTINUOUS
 62
     7
 10
-135.213724
 20
-22.28493399919988
 30
0.0
  0
VERTEX
  8
3
  6
CONTINUOUS
 62
     7
 10
-135.213724
 20
-2.284933999967127
 30
0.0
  0
SEQEND
  8
3
  6
CONTINUOUS
 62
     7
  0
LINE
  8
3
  6
BORDER
 62
     4
 10
-130.213724
 20
-0.2849339991998825
 30
0.0
 11
-130.213724
 21
-24.28493399919988
 31
0.0
  0
LINE
  8
3
  6
BORDER
 62
     4
 10
-23.74224200099707
 20
-0.3799179992327879
 30
0.0
 11
-23.74224200099707
 21
-24.37991799923279
 31
0.0
  0
LINE
  8
3
  6
BORDER
 62
     4
 10
6.135708999999999
 20
-0.3799179989905497
 30
0.0
 11
6.135708999999999
 21
-24.37991799899055
 31
0.0
  0
LINE
  8
3
  6
BORDER
 62
     4
 10
40.60895199887455
 20
-0.3799179989905497
 30
0.0
 11
40.60895199887455
 21
-24.37991799899055
 31
0.0
  0
LINE
  8
3
  6
BORDER
 62
     4
 10
-131.3449030011255
 20
-80.94187199899054
 30
0.0
 11
-131.3449030011255
 21
-104.9418719989905
 31
0.0
  0
ENDBLK
  8
0
  0
ENDSEC
  0
SECTION
  2
ENTITIES
  0
INSERT
  8
0
  2
0-NONE
 10
0.0
 20
0.0
 30
0.0
  0
ENDSEC
  0
EOF
